  0
SECTION
  2
HEADER
  9
$ACADVER
  1
AC1015
  9
$ACADMAINTVER
 70
    13
  9
$DWGCODEPAGE
  3
ANSI_1252
  9
$INSBASE
 10
0.0
 20
0.0
 30
0.0
  9
$EXTMIN
 10
-54.24800992521428
 20
-0.0000000000000142
 30
-0.8000000000000003
  9
$EXTMAX
 10
54.24800992521251
 20
46.99999999999594
 30
4.599999999999999
  9
$LIMMIN
 10
0.0
 20
0.0
  9
$LIMMAX
 10
420.0
 20
297.0
  9
$ORTHOMODE
 70
     0
  9
$REGENMODE
 70
     1
  9
$FILLMODE
 70
     1
  9
$QTEXTMODE
 70
     0
  9
$MIRRTEXT
 70
     1
  9
$LTSCALE
 40
1.0
  9
$ATTMODE
 70
     1
  9
$TEXTSIZE
 40
2.5
  9
$TRACEWID
 40
1.0
  9
$TEXTSTYLE
  7
Standard
  9
$CLAYER
  8
0
  9
$CELTYPE
  6
ByLayer
  9
$CECOLOR
 62
   256
  9
$CELTSCALE
 40
1.0
  9
$DISPSILH
 70
     0
  9
$DIMSCALE
 40
1.0
  9
$DIMASZ
 40
2.5
  9
$DIMEXO
 40
0.625
  9
$DIMDLI
 40
3.75
  9
$DIMRND
 40
0.0
  9
$DIMDLE
 40
0.0
  9
$DIMEXE
 40
1.25
  9
$DIMTP
 40
0.0
  9
$DIMTM
 40
0.0
  9
$DIMTXT
 40
2.5
  9
$DIMCEN
 40
2.5
  9
$DIMTSZ
 40
0.0
  9
$DIMTOL
 70
     0
  9
$DIMLIM
 70
     0
  9
$DIMTIH
 70
     0
  9
$DIMTOH
 70
     0
  9
$DIMSE1
 70
     0
  9
$DIMSE2
 70
     0
  9
$DIMTAD
 70
     1
  9
$DIMZIN
 70
     8
  9
$DIMBLK
  1

  9
$DIMASO
 70
     1
  9
$DIMSHO
 70
     1
  9
$DIMPOST
  1

  9
$DIMAPOST
  1

  9
$DIMALT
 70
     0
  9
$DIMALTD
 70
     3
  9
$DIMALTF
 40
0.03937007874016
  9
$DIMLFAC
 40
1.0
  9
$DIMTOFL
 70
     1
  9
$DIMTVP
 40
0.0
  9
$DIMTIX
 70
     0
  9
$DIMSOXD
 70
     0
  9
$DIMSAH
 70
     0
  9
$DIMBLK1
  1

  9
$DIMBLK2
  1

  9
$DIMSTYLE
  2
ISO-25
  9
$DIMCLRD
 70
     0
  9
$DIMCLRE
 70
     0
  9
$DIMCLRT
 70
     0
  9
$DIMTFAC
 40
1.0
  9
$DIMGAP
 40
0.625
  9
$DIMJUST
 70
     0
  9
$DIMSD1
 70
     0
  9
$DIMSD2
 70
     0
  9
$DIMTOLJ
 70
     0
  9
$DIMTZIN
 70
     8
  9
$DIMALTZ
 70
     0
  9
$DIMALTTZ
 70
     0
  9
$DIMUPT
 70
     0
  9
$DIMDEC
 70
     2
  9
$DIMTDEC
 70
     2
  9
$DIMALTU
 70
     2
  9
$DIMALTTD
 70
     3
  9
$DIMTXSTY
  7
Standard
  9
$DIMAUNIT
 70
     0
  9
$DIMADEC
 70
     0
  9
$DIMALTRND
 40
0.0
  9
$DIMAZIN
 70
     0
  9
$DIMDSEP
 70
    44
  9
$DIMATFIT
 70
     3
  9
$DIMFRAC
 70
     0
  9
$DIMLDRBLK
  1

  9
$DIMLUNIT
 70
     2
  9
$DIMLWD
 70
    -2
  9
$DIMLWE
 70
    -2
  9
$DIMTMOVE
 70
     0
  9
$LUNITS
 70
     2
  9
$LUPREC
 70
     4
  9
$SKETCHINC
 40
1.0
  9
$FILLETRAD
 40
10.0
  9
$AUNITS
 70
     0
  9
$AUPREC
 70
     0
  9
$MENU
  1
.
  9
$ELEVATION
 40
0.0
  9
$PELEVATION
 40
0.0
  9
$THICKNESS
 40
0.0
  9
$LIMCHECK
 70
     0
  9
$CHAMFERA
 40
10.0
  9
$CHAMFERB
 40
10.0
  9
$CHAMFERC
 40
20.0
  9
$CHAMFERD
 40
0.0
  9
$SKPOLY
 70
     0
  9
$TDCREATE
 40
2455992.556107465
  9
$TDUCREATE
 40
2455992.514440798
  9
$TDUPDATE
 40
2455992.557706828
  9
$TDUUPDATE
 40
2455992.516040162
  9
$TDINDWG
 40
0.0016038773
  9
$TDUSRTIMER
 40
0.0016038773
  9
$USRTIMER
 70
     1
  9
$ANGBASE
 50
0.0
  9
$ANGDIR
 70
     0
  9
$PDMODE
 70
     0
  9
$PDSIZE
 40
0.0
  9
$PLINEWID
 40
0.0
  9
$SPLFRAME
 70
     0
  9
$SPLINETYPE
 70
     6
  9
$SPLINESEGS
 70
     8
  9
$HANDSEED
  5
2A3
  9
$SURFTAB1
 70
     6
  9
$SURFTAB2
 70
     6
  9
$SURFTYPE
 70
     6
  9
$SURFU
 70
     6
  9
$SURFV
 70
     6
  9
$UCSBASE
  2

  9
$UCSNAME
  2

  9
$UCSORG
 10
0.0
 20
0.0
 30
0.0
  9
$UCSXDIR
 10
1.0
 20
0.0
 30
0.0
  9
$UCSYDIR
 10
0.0
 20
1.0
 30
0.0
  9
$UCSORTHOREF
  2

  9
$UCSORTHOVIEW
 70
     1
  9
$UCSORGTOP
 10
0.0
 20
0.0
 30
0.0
  9
$UCSORGBOTTOM
 10
0.0
 20
0.0
 30
0.0
  9
$UCSORGLEFT
 10
0.0
 20
0.0
 30
0.0
  9
$UCSORGRIGHT
 10
0.0
 20
0.0
 30
0.0
  9
$UCSORGFRONT
 10
0.0
 20
0.0
 30
0.0
  9
$UCSORGBACK
 10
0.0
 20
0.0
 30
0.0
  9
$PUCSBASE
  2

  9
$PUCSNAME
  2

  9
$PUCSORG
 10
0.0
 20
0.0
 30
0.0
  9
$PUCSXDIR
 10
1.0
 20
0.0
 30
0.0
  9
$PUCSYDIR
 10
0.0
 20
1.0
 30
0.0
  9
$PUCSORTHOREF
  2

  9
$PUCSORTHOVIEW
 70
     0
  9
$PUCSORGTOP
 10
0.0
 20
0.0
 30
0.0
  9
$PUCSORGBOTTOM
 10
0.0
 20
0.0
 30
0.0
  9
$PUCSORGLEFT
 10
0.0
 20
0.0
 30
0.0
  9
$PUCSORGRIGHT
 10
0.0
 20
0.0
 30
0.0
  9
$PUCSORGFRONT
 10
0.0
 20
0.0
 30
0.0
  9
$PUCSORGBACK
 10
0.0
 20
0.0
 30
0.0
  9
$USERI1
 70
     0
  9
$USERI2
 70
     0
  9
$USERI3
 70
     0
  9
$USERI4
 70
     0
  9
$USERI5
 70
     0
  9
$USERR1
 40
0.0
  9
$USERR2
 40
0.0
  9
$USERR3
 40
0.0
  9
$USERR4
 40
0.0
  9
$USERR5
 40
0.0
  9
$WORLDVIEW
 70
     1
  9
$SHADEDGE
 70
     3
  9
$SHADEDIF
 70
    70
  9
$TILEMODE
 70
     1
  9
$MAXACTVP
 70
    64
  9
$PINSBASE
 10
0.0
 20
0.0
 30
0.0
  9
$PLIMCHECK
 70
     0
  9
$PEXTMIN
 10
1.000000000000000E+20
 20
1.000000000000000E+20
 30
1.000000000000000E+20
  9
$PEXTMAX
 10
-1.000000000000000E+20
 20
-1.000000000000000E+20
 30
-1.000000000000000E+20
  9
$PLIMMIN
 10
0.0
 20
0.0
  9
$PLIMMAX
 10
420.0
 20
297.0
  9
$UNITMODE
 70
     0
  9
$VISRETAIN
 70
     1
  9
$PLINEGEN
 70
     0
  9
$PSLTSCALE
 70
     1
  9
$TREEDEPTH
 70
  3020
  9
$CMLSTYLE
  2
Standard
  9
$CMLJUST
 70
     0
  9
$CMLSCALE
 40
20.0
  9
$PROXYGRAPHICS
 70
     1
  9
$MEASUREMENT
 70
     1
  9
$CELWEIGHT
370
    -1
  9
$ENDCAPS
280
     0
  9
$JOINSTYLE
280
     0
  9
$LWDISPLAY
290
     0
  9
$INSUNITS
 70
     4
  9
$HYPERLINKBASE
  1

  9
$STYLESHEET
  1

  9
$XEDIT
290
     1
  9
$CEPSNTYPE
380
     0
  9
$PSTYLEMODE
290
     1
  9
$FINGERPRINTGUID
  2
{29B95052-B717-4616-A8E4-4F73851354D0}
  9
$VERSIONGUID
  2
{3751E500-45B6-4764-AC58-22B9E4BA35D3}
  9
$EXTNAMES
290
     1
  9
$PSVPSCALE
 40
0.0
  9
$OLESTARTUP
290
     0
  0
ENDSEC
  0
SECTION
  2
CLASSES
  0
CLASS
  1
ACDBDICTIONARYWDFLT
  2
AcDbDictionaryWithDefault
  3
AutoCAD 2000
 90
        0
280
     0
281
     0
  0
CLASS
  1
ACDBPLACEHOLDER
  2
AcDbPlaceHolder
  3
AutoCAD 2000
 90
        0
280
     0
281
     0
  0
CLASS
  1
LAYOUT
  2
AcDbLayout
  3
AutoCAD 2000
 90
        0
280
     0
281
     0
  0
CLASS
  1
DIMASSOC
  2
AcDbDimAssoc
  3
"AcDbDimAssoc|Product Desc:     AcDim ARX App For Dimension|Company:          Autodesk, Inc.|WEB Address:      www.autodesk.com"
 90
        0
280
     0
281
     0
  0
CLASS
  1
DICTIONARYVAR
  2
AcDbDictionaryVar
  3
AutoCAD 2000
 90
        0
280
     0
281
     0
  0
ENDSEC
  0
SECTION
  2
TABLES
  0
TABLE
  2
VPORT
  5
8
330
0
100
AcDbSymbolTable
 70
     3
  0
VPORT
  5
2A2
330
8
100
AcDbSymbolTableRecord
100
AcDbViewportTableRecord
  2
*Active
 70
     0
 10
0.0
 20
0.0
 11
1.0
 21
1.0
 12
-1.781429879208729
 22
0.0761406243663032
 13
0.0
 23
0.0
 14
10.0
 24
10.0
 15
10.0
 25
10.0
 16
0.0
 26
0.0
 36
1.0
 17
1.781429879207847
 27
23.42385937563166
 37
1.243714855581938
 40
51.63931789661262
 41
2.107744107744107
 42
50.0
 43
0.0
 44
0.0
 50
0.0
 51
0.0
 71
     0
 72
   100
 73
     1
 74
     3
 75
     0
 76
     0
 77
     0
 78
     0
281
     0
 65
     1
110
0.0
120
0.0
130
0.0
111
1.0
121
0.0
131
0.0
112
0.0
122
1.0
132
0.0
 79
     1
146
0.0
  0
ENDTAB
  0
TABLE
  2
LTYPE
  5
5
330
0
100
AcDbSymbolTable
 70
     2
  0
LTYPE
  5
14
330
5
100
AcDbSymbolTableRecord
100
AcDbLinetypeTableRecord
  2
ByBlock
 70
     0
  3

 72
    65
 73
     0
 40
0.0
  0
LTYPE
  5
15
330
5
100
AcDbSymbolTableRecord
100
AcDbLinetypeTableRecord
  2
ByLayer
 70
     0
  3

 72
    65
 73
     0
 40
0.0
  0
LTYPE
  5
16
330
5
100
AcDbSymbolTableRecord
100
AcDbLinetypeTableRecord
  2
Continuous
 70
     0
  3
Solid line
 72
    65
 73
     0
 40
0.0
  0
LTYPE
  5
BF
330
5
100
AcDbSymbolTableRecord
100
AcDbLinetypeTableRecord
  2
ACAD_ISO10W100
 70
     0
  3
ISO Strichpunktlinie __ . __ . __ . __ . __ . _
 72
    65
 73
     4
 40
18.0
 49
12.0
 74
     0
 49
-3.0
 74
     0
 49
0.0
 74
     0
 49
-3.0
 74
     0
  0
ENDTAB
  0
TABLE
  2
LAYER
  5
2
330
0
100
AcDbSymbolTable
 70
     5
  0
LAYER
  5
10
330
2
100
AcDbSymbolTableRecord
100
AcDbLayerTableRecord
  2
0
 70
     0
 62
     7
  6
Continuous
370
    -3
390
F
  0
LAYER
  5
C0
330
2
100
AcDbSymbolTableRecord
100
AcDbLayerTableRecord
  2
Defpoints
 70
     0
 62
     7
  6
Continuous
290
     0
370
    -3
390
F
  0
LAYER
  5
C1
330
2
100
AcDbSymbolTableRecord
100
AcDbLayerTableRecord
  2
Bemaßung
 70
     0
 62
     3
  6
Continuous
370
    -3
390
F
  0
LAYER
  5
C2
330
2
100
AcDbSymbolTableRecord
100
AcDbLayerTableRecord
  2
Symetrie
 70
     0
 62
     4
  6
ACAD_ISO10W100
370
    -3
390
F
  0
LAYER
  5
C3
330
2
100
AcDbSymbolTableRecord
100
AcDbLayerTableRecord
  2
bem
 70
     0
 62
     3
  6
Continuous
370
    -3
390
F
  0
ENDTAB
  0
TABLE
  2
STYLE
  5
3
330
0
100
AcDbSymbolTable
 70
     1
  0
STYLE
  5
11
330
3
100
AcDbSymbolTableRecord
100
AcDbTextStyleTableRecord
  2
Standard
 70
     0
 40
0.0
 41
1.0
 50
0.0
 71
     0
 42
2.5
  3
txt
  4

  0
ENDTAB
  0
TABLE
  2
VIEW
  5
6
330
0
100
AcDbSymbolTable
 70
     0
  0
ENDTAB
  0
TABLE
  2
UCS
  5
7
330
0
100
AcDbSymbolTable
 70
     0
  0
ENDTAB
  0
TABLE
  2
APPID
  5
9
330
0
100
AcDbSymbolTable
 70
     1
  0
APPID
  5
12
330
9
100
AcDbSymbolTableRecord
100
AcDbRegAppTableRecord
  2
ACAD
 70
     0
  0
ENDTAB
  0
TABLE
  2
DIMSTYLE
  5
A
330
0
100
AcDbSymbolTable
 70
     1
100
AcDbDimStyleTable
 71
     0
  0
DIMSTYLE
105
27
330
A
100
AcDbSymbolTableRecord
100
AcDbDimStyleTableRecord
  2
ISO-25
 70
     0
 41
2.5
 42
0.625
 43
3.75
 44
1.25
 73
     0
 74
     0
 77
     1
 78
     8
140
2.5
141
2.5
143
0.03937007874016
147
0.625
171
     3
172
     1
271
     2
272
     2
274
     3
278
    44
283
     0
284
     8
340
11
  0
ENDTAB
  0
TABLE
  2
BLOCK_RECORD
  5
1
330
0
100
AcDbSymbolTable
 70
    28
  0
BLOCK_RECORD
  5
1F
330
1
100
AcDbSymbolTableRecord
100
AcDbBlockTableRecord
  2
*Model_Space
340
22
  0
BLOCK_RECORD
  5
1B
330
1
100
AcDbSymbolTableRecord
100
AcDbBlockTableRecord
  2
*Paper_Space
340
1E
  0
BLOCK_RECORD
  5
23
330
1
100
AcDbSymbolTableRecord
100
AcDbBlockTableRecord
  2
*Paper_Space0
340
26
  0
BLOCK_RECORD
  5
2B
330
1
100
AcDbSymbolTableRecord
100
AcDbBlockTableRecord
  2
*D1
340
0
  0
BLOCK_RECORD
  5
37
330
1
100
AcDbSymbolTableRecord
100
AcDbBlockTableRecord
  2
*D2
340
0
  0
BLOCK_RECORD
  5
40
330
1
100
AcDbSymbolTableRecord
100
AcDbBlockTableRecord
  2
*D3
340
0
  0
BLOCK_RECORD
  5
4C
330
1
100
AcDbSymbolTableRecord
100
AcDbBlockTableRecord
  2
*D4
340
0
  0
BLOCK_RECORD
  5
58
330
1
100
AcDbSymbolTableRecord
100
AcDbBlockTableRecord
  2
*D5
340
0
  0
BLOCK_RECORD
  5
63
330
1
100
AcDbSymbolTableRecord
100
AcDbBlockTableRecord
  2
*D6
340
0
  0
BLOCK_RECORD
  5
6E
330
1
100
AcDbSymbolTableRecord
100
AcDbBlockTableRecord
  2
*D7
340
0
  0
BLOCK_RECORD
  5
77
330
1
100
AcDbSymbolTableRecord
100
AcDbBlockTableRecord
  2
*D8
340
0
  0
BLOCK_RECORD
  5
83
330
1
100
AcDbSymbolTableRecord
100
AcDbBlockTableRecord
  2
*D9
340
0
  0
BLOCK_RECORD
  5
8F
330
1
100
AcDbSymbolTableRecord
100
AcDbBlockTableRecord
  2
*D10
340
0
  0
BLOCK_RECORD
  5
9B
330
1
100
AcDbSymbolTableRecord
100
AcDbBlockTableRecord
  2
*D11
340
0
  0
BLOCK_RECORD
  5
A7
330
1
100
AcDbSymbolTableRecord
100
AcDbBlockTableRecord
  2
*D12
340
0
  0
BLOCK_RECORD
  5
B3
330
1
100
AcDbSymbolTableRecord
100
AcDbBlockTableRecord
  2
*D13
340
0
  0
BLOCK_RECORD
  5
142
330
1
100
AcDbSymbolTableRecord
100
AcDbBlockTableRecord
  2
*D15
340
0
  0
BLOCK_RECORD
  5
14E
330
1
100
AcDbSymbolTableRecord
100
AcDbBlockTableRecord
  2
*D16
340
0
  0
BLOCK_RECORD
  5
15A
330
1
100
AcDbSymbolTableRecord
100
AcDbBlockTableRecord
  2
*D17
340
0
  0
BLOCK_RECORD
  5
166
330
1
100
AcDbSymbolTableRecord
100
AcDbBlockTableRecord
  2
*D18
340
0
  0
BLOCK_RECORD
  5
172
330
1
100
AcDbSymbolTableRecord
100
AcDbBlockTableRecord
  2
*D19
340
0
  0
BLOCK_RECORD
  5
17E
330
1
100
AcDbSymbolTableRecord
100
AcDbBlockTableRecord
  2
*D20
340
0
  0
BLOCK_RECORD
  5
18A
330
1
100
AcDbSymbolTableRecord
100
AcDbBlockTableRecord
  2
*D21
340
0
  0
BLOCK_RECORD
  5
195
330
1
100
AcDbSymbolTableRecord
100
AcDbBlockTableRecord
  2
*D22
340
0
  0
BLOCK_RECORD
  5
1A1
330
1
100
AcDbSymbolTableRecord
100
AcDbBlockTableRecord
  2
*D23
340
0
  0
BLOCK_RECORD
  5
1AD
330
1
100
AcDbSymbolTableRecord
100
AcDbBlockTableRecord
  2
*D24
340
0
  0
BLOCK_RECORD
  5
1B8
330
1
100
AcDbSymbolTableRecord
100
AcDbBlockTableRecord
  2
*D25
340
0
  0
BLOCK_RECORD
  5
1D6
330
1
100
AcDbSymbolTableRecord
100
AcDbBlockTableRecord
  2
*D26
340
0
  0
BLOCK_RECORD
  5
1DF
330
1
100
AcDbSymbolTableRecord
100
AcDbBlockTableRecord
  2
*D27
340
0
  0
ENDTAB
  0
ENDSEC
  0
SECTION
  2
BLOCKS
  0
BLOCK
  5
20
330
1F
100
AcDbEntity
  8
0
100
AcDbBlockBegin
  2
*Model_Space
 70
     0
 10
0.0
 20
0.0
 30
0.0
  3
*Model_Space
  1

  0
ENDBLK
  5
21
330
1F
100
AcDbEntity
  8
0
100
AcDbBlockEnd
  0
BLOCK
  5
1C
330
1B
100
AcDbEntity
 67
     1
  8
0
100
AcDbBlockBegin
  2
*Paper_Space
 70
     0
 10
0.0
 20
0.0
 30
0.0
  3
*Paper_Space
  1

  0
ENDBLK
  5
1D
330
1B
100
AcDbEntity
 67
     1
  8
0
100
AcDbBlockEnd
  0
BLOCK
  5
24
330
23
100
AcDbEntity
  8
0
100
AcDbBlockBegin
  2
*Paper_Space0
 70
     0
 10
0.0
 20
0.0
 30
0.0
  3
*Paper_Space0
  1

  0
ENDBLK
  5
25
330
23
100
AcDbEntity
  8
0
100
AcDbBlockEnd
  0
BLOCK
  5
35
330
2B
100
AcDbEntity
  8
0
100
AcDbBlockBegin
  2
*D1
 70
     1
 10
0.0
 20
0.0
 30
0.0
  3
*D1
  1

  0
LINE
  5
2C
330
2B
100
AcDbEntity
  8
Bemaßung
 62
     0
370
    -2
100
AcDbLine
 10
138.4981294180438
 20
47.220093891543
 30
0.0
 11
203.4563084383509
 21
47.22009389154298
 31
0.0
  0
LINE
  5
2D
330
2B
100
AcDbEntity
  8
Bemaßung
 62
     0
370
    -2
100
AcDbLine
 10
138.4981294180438
 20
0.2200938915470088
 30
0.0
 11
203.4563084383509
 21
0.2200938915469904
 31
0.0
  0
LINE
  5
2E
330
2B
100
AcDbEntity
  8
Bemaßung
 62
     0
370
    -2
100
AcDbLine
 10
202.206308438351
 20
44.72009389154298
 30
0.0
 11
202.206308438351
 21
2.72009389154699
 31
0.0
  0
SOLID
  5
2F
330
2B
100
AcDbEntity
  8
Bemaßung
 62
     0
100
AcDbTrace
 10
201.7896417716843
 20
44.72009389154298
 30
0.0
 11
202.6229751050176
 21
44.72009389154298
 31
0.0
 12
202.206308438351
 22
47.22009389154298
 32
0.0
 13
202.206308438351
 23
47.22009389154298
 33
0.0
  0
SOLID
  5
30
330
2B
100
AcDbEntity
  8
Bemaßung
 62
     0
100
AcDbTrace
 10
201.7896417716843
 20
2.72009389154699
 30
0.0
 11
202.6229751050176
 21
2.72009389154699
 31
0.0
 12
202.206308438351
 22
0.2200938915469907
 32
0.0
 13
202.206308438351
 23
0.2200938915469907
 33
0.0
  0
MTEXT
  5
31
330
2B
100
AcDbEntity
  8
Bemaßung
 62
     0
100
AcDbMText
 10
200.3313084383509
 20
23.72009389154502
 30
0.0
 40
2.5
 41
0.0
 71
     5
 72
     1
  1
47
 11
0.0000000000000001
 21
1.0
 31
0.0
 73
     1
 44
1.0
  0
POINT
  5
32
330
2B
100
AcDbEntity
  8
Defpoints
 62
     0
100
AcDbPoint
 10
137.8731294180438
 20
47.220093891543
 30
0.0
  0
POINT
  5
33
330
2B
100
AcDbEntity
  8
Defpoints
 62
     0
100
AcDbPoint
 10
137.8731294180438
 20
0.220093891547009
 30
0.0
  0
POINT
  5
34
330
2B
100
AcDbEntity
  8
Defpoints
 62
     0
100
AcDbPoint
 10
202.206308438351
 20
0.2200938915469907
 30
0.0
  0
ENDBLK
  5
36
330
2B
100
AcDbEntity
  8
0
100
AcDbBlockEnd
  0
BLOCK
  5
3E
330
37
100
AcDbEntity
  8
0
100
AcDbBlockBegin
  2
*D2
 70
     1
 10
0.0
 20
0.0
 30
0.0
  3
*D2
  1

  0
LINE
  5
38
330
37
100
AcDbEntity
  8
Bemaßung
 62
     0
370
    -2
100
AcDbLine
 10
809.7262087680418
 20
-1.92130829077007
 30
0.0
 11
802.3731357892682
 21
2.664073078947751
 31
0.0
  0
MTEXT
  5
39
330
37
100
AcDbEntity
  8
Bemaßung
 62
     0
100
AcDbMText
 10
808.4202491439333
 20
1.102788914123152
 30
0.0
 40
2.5
 41
0.0
 71
     5
 72
     1
  1
R8
 11
0.8485315191830389
 21
-0.5291448392953711
 31
0.0
 73
     1
 44
1.0
  0
LINE
  5
3A
330
37
100
AcDbEntity
  8
Bemaßung
 62
     0
370
    -2
100
AcDbLine
 10
793.4635548378429
 20
8.220093891551357
 30
0.0
 11
800.2518069913106
 21
3.986935177186182
 31
0.0
  0
SOLID
  5
3B
330
37
100
AcDbEntity
  8
Bemaßung
 62
     0
100
AcDbTrace
 10
802.5936128056414
 20
3.017627878607356
 30
0.0
 11
802.1526587728951
 21
2.310518279288089
 31
0.0
 12
800.2518069913106
 22
3.986935177186182
 32
0.0
 13
800.2518069913106
 23
3.986935177186182
 33
0.0
  0
POINT
  5
3C
330
37
100
AcDbEntity
  8
Defpoints
 62
     0
100
AcDbPoint
 10
800.2518069913106
 20
3.986935177186182
 30
0.0
  0
POINT
  5
3D
330
37
100
AcDbEntity
  8
Defpoints
 62
     0
100
AcDbPoint
 10
793.4635548378429
 20
8.220093891551357
 30
0.0
  0
ENDBLK
  5
3F
330
37
100
AcDbEntity
  8
0
100
AcDbBlockEnd
  0
BLOCK
  5
4A
330
40
100
AcDbEntity
  8
0
100
AcDbBlockBegin
  2
*D3
 70
     1
 10
0.0
 20
0.0
 30
0.0
  3
*D3
  1

  0
LINE
  5
41
330
40
100
AcDbEntity
  8
Bemaßung
 62
     0
370
    -2
100
AcDbLine
 10
712.2135548378398
 20
17.09509389154097
 30
0.0
 11
712.2135548378398
 21
-9.149779390228033
 31
0.0
  0
LINE
  5
42
330
40
100
AcDbEntity
  8
Bemaßung
 62
     0
370
    -2
100
AcDbLine
 10
782.2135548378286
 20
17.09509389156309
 30
0.0
 11
782.2135548378286
 21
-9.149779390228033
 31
0.0
  0
LINE
  5
43
330
40
100
AcDbEntity
  8
Bemaßung
 62
     0
370
    -2
100
AcDbLine
 10
714.7135548378399
 20
-7.899779390228034
 30
0.0
 11
779.7135548378286
 21
-7.899779390228034
 31
0.0
  0
SOLID
  5
44
330
40
100
AcDbEntity
  8
Bemaßung
 62
     0
100
AcDbTrace
 10
714.7135548378399
 20
-7.483112723561367
 30
0.0
 11
714.7135548378399
 21
-8.316446056894701
 31
0.0
 12
712.2135548378398
 22
-7.899779390228034
 32
0.0
 13
712.2135548378398
 23
-7.899779390228034
 33
0.0
  0
SOLID
  5
45
330
40
100
AcDbEntity
  8
Bemaßung
 62
     0
100
AcDbTrace
 10
779.7135548378286
 20
-7.483112723561367
 30
0.0
 11
779.7135548378286
 21
-8.316446056894701
 31
0.0
 12
782.2135548378286
 22
-7.899779390228034
 32
0.0
 13
782.2135548378286
 23
-7.899779390228034
 33
0.0
  0
MTEXT
  5
46
330
40
100
AcDbEntity
  8
Bemaßung
 62
     0
100
AcDbMText
 10
747.2135548378341
 20
-6.024779390228034
 30
0.0
 40
2.5
 41
0.0
 71
     5
 72
     1
  1
70
 73
     1
 44
1.0
  0
POINT
  5
47
330
40
100
AcDbEntity
  8
Defpoints
 62
     0
100
AcDbPoint
 10
712.2135548378398
 20
17.72009389154097
 30
-0.8000000000000003
  0
POINT
  5
48
330
40
100
AcDbEntity
  8
Defpoints
 62
     0
100
AcDbPoint
 10
782.2135548378286
 20
17.72009389156309
 30
-0.8000000000000003
  0
POINT
  5
49
330
40
100
AcDbEntity
  8
Defpoints
 62
     0
100
AcDbPoint
 10
782.2135548378286
 20
-7.899779390228034
 30
0.0
  0
ENDBLK
  5
4B
330
40
100
AcDbEntity
  8
0
100
AcDbBlockEnd
  0
BLOCK
  5
56
330
4C
100
AcDbEntity
  8
0
100
AcDbBlockBegin
  2
*D4
 70
     1
 10
0.0
 20
0.0
 30
0.0
  3
*D4
  1

  0
LINE
  5
4D
330
4C
100
AcDbEntity
  8
Bemaßung
 62
     0
370
    -2
100
AcDbLine
 10
700.9635548378484
 20
7.595093891546966
 30
0.0
 11
700.9635548378484
 21
-18.63683950214901
 31
0.0
  0
LINE
  5
4E
330
4C
100
AcDbEntity
  8
Bemaßung
 62
     0
370
    -2
100
AcDbLine
 10
793.4635548378428
 20
7.595093891551357
 30
0.0
 11
793.4635548378428
 21
-18.63683950214901
 31
0.0
  0
LINE
  5
4F
330
4C
100
AcDbEntity
  8
Bemaßung
 62
     0
370
    -2
100
AcDbLine
 10
703.4635548378483
 20
-17.38683950214901
 30
0.0
 11
790.9635548378428
 21
-17.38683950214901
 31
0.0
  0
SOLID
  5
50
330
4C
100
AcDbEntity
  8
Bemaßung
 62
     0
100
AcDbTrace
 10
703.4635548378483
 20
-16.97017283548234
 30
0.0
 11
703.4635548378483
 21
-17.80350616881568
 31
0.0
 12
700.9635548378484
 22
-17.38683950214901
 32
0.0
 13
700.9635548378484
 23
-17.38683950214901
 33
0.0
  0
SOLID
  5
51
330
4C
100
AcDbEntity
  8
Bemaßung
 62
     0
100
AcDbTrace
 10
790.9635548378428
 20
-16.97017283548234
 30
0.0
 11
790.9635548378428
 21
-17.80350616881568
 31
0.0
 12
793.4635548378428
 22
-17.38683950214901
 32
0.0
 13
793.4635548378428
 23
-17.38683950214901
 33
0.0
  0
MTEXT
  5
52
330
4C
100
AcDbEntity
  8
Bemaßung
 62
     0
100
AcDbMText
 10
747.2135548378455
 20
-15.30350616881568
 30
0.0
 40
2.5
 41
0.0
 71
     5
 72
     1
  1
92,5
 73
     1
 44
1.0
  0
POINT
  5
53
330
4C
100
AcDbEntity
  8
Defpoints
 62
     0
100
AcDbPoint
 10
700.9635548378484
 20
8.220093891546966
 30
0.0
  0
POINT
  5
54
330
4C
100
AcDbEntity
  8
Defpoints
 62
     0
100
AcDbPoint
 10
793.4635548378428
 20
8.220093891551357
 30
0.0
  0
POINT
  5
55
330
4C
100
AcDbEntity
  8
Defpoints
 62
     0
100
AcDbPoint
 10
793.4635548378428
 20
-17.38683950214901
 30
0.0
  0
ENDBLK
  5
57
330
4C
100
AcDbEntity
  8
0
100
AcDbBlockEnd
  0
BLOCK
  5
61
330
58
100
AcDbEntity
  8
0
100
AcDbBlockBegin
  2
*D5
 70
     1
 10
0.0
 20
0.0
 30
0.0
  3
*D5
  1

  0
LINE
  5
59
330
58
100
AcDbEntity
  8
Bemaßung
 62
     0
370
    -2
100
AcDbLine
 10
726.2248423934697
 20
24.9500039055888
 30
0.0
 11
715.8570820457521
 21
19.60017619963372
 31
0.0
  0
LINE
  5
5A
330
58
100
AcDbEntity
  8
Bemaßung
 62
     0
370
    -2
100
AcDbLine
 10
708.5700276299278
 20
15.84001158344824
 30
0.0
 11
706.348364698274
 21
14.69361993217217
 31
0.0
  0
MTEXT
  5
5B
330
58
100
AcDbEntity
  8
Bemaßung
 62
     0
100
AcDbMText
 10
721.1964673093745
 20
24.69967165462742
 30
0.0
 40
2.5
 41
0.0
 71
     5
 72
     1
  1
\U+22053,2
 11
0.8886651726615141
 21
0.4585566605104339
 31
0.0
 73
     1
 44
1.0
  0
LINE
  5
5C
330
58
100
AcDbEntity
  8
Bemaßung
 62
     0
370
    -2
100
AcDbLine
 10
710.7916905615816
 20
16.98640323472432
 30
0.0
 11
713.6354191140983
 21
18.45378454835764
 31
0.0
  0
SOLID
  5
5D
330
58
100
AcDbEntity
  8
Bemaßung
 62
     0
100
AcDbTrace
 10
708.3789623547152
 20
16.21028873872387
 30
0.0
 11
708.7610929051406
 21
15.46973442817255
 31
0.0
 12
710.7916905615816
 22
16.98640323472432
 32
0.0
 13
710.7916905615816
 23
16.98640323472432
 33
0.0
  0
SOLID
  5
5E
330
58
100
AcDbEntity
  8
Bemaßung
 62
     0
100
AcDbTrace
 10
715.6660167705394
 20
19.97045335490935
 30
0.0
 11
716.0481473209647
 21
19.22989904435803
 31
0.0
 12
713.6354191140983
 22
18.45378454835764
 32
0.0
 13
713.6354191140983
 23
18.45378454835764
 33
0.0
  0
POINT
  5
5F
330
58
100
AcDbEntity
  8
Defpoints
 62
     0
100
AcDbPoint
 10
713.6354191140983
 20
18.45378454835764
 30
-0.8000000000000003
  0
POINT
  5
60
330
58
100
AcDbEntity
  8
Defpoints
 62
     0
100
AcDbPoint
 10
710.7916905615816
 20
16.98640323472432
 30
-0.8000000000000003
  0
ENDBLK
  5
62
330
58
100
AcDbEntity
  8
0
100
AcDbBlockEnd
  0
BLOCK
  5
6C
330
63
100
AcDbEntity
  8
0
100
AcDbBlockBegin
  2
*D6
 70
     1
 10
0.0
 20
0.0
 30
0.0
  3
*D6
  1

  0
LINE
  5
64
330
63
100
AcDbEntity
  8
Bemaßung
 62
     0
370
    -2
100
AcDbLine
 10
760.4234886826579
 20
23.71818336210293
 30
0.0
 11
752.2214877607106
 21
19.99399095165034
 31
0.0
  0
LINE
  5
65
330
63
100
AcDbEntity
  8
Bemaßung
 62
     0
370
    -2
100
AcDbLine
 10
742.2056219149584
 20
15.44619683143145
 30
0.0
 11
739.9292887681967
 21
14.41260725865447
 31
0.0
  0
MTEXT
  5
66
330
63
100
AcDbEntity
  8
Bemaßung
 62
     0
100
AcDbMText
 10
757.1822689274164
 20
24.30571118499926
 30
0.0
 40
2.5
 41
0.0
 71
     5
 72
     1
  1
\U+22056
 11
0.9105332587047328
 21
0.4134358291108067
 31
0.0
 73
     1
 44
1.0
  0
LINE
  5
67
330
63
100
AcDbEntity
  8
Bemaßung
 62
     0
370
    -2
100
AcDbLine
 10
744.4819550617203
 20
16.47978640420848
 30
0.0
 11
749.9451546139488
 21
18.96040137887331
 31
0.0
  0
SOLID
  5
68
330
63
100
AcDbEntity
  8
Bemaßung
 62
     0
100
AcDbTrace
 10
742.0333569861623
 20
15.82558568922507
 30
0.0
 11
742.3778868437546
 21
15.06680797363782
 31
0.0
 12
744.4819550617203
 22
16.47978640420848
 32
0.0
 13
744.4819550617203
 23
16.47978640420848
 33
0.0
  0
SOLID
  5
69
330
63
100
AcDbEntity
  8
Bemaßung
 62
     0
100
AcDbTrace
 10
752.0492228319144
 20
20.37337980944403
 30
0.0
 11
752.3937526895068
 21
19.61460209385671
 31
0.0
 12
749.9451546139488
 22
18.96040137887331
 32
0.0
 13
749.9451546139488
 23
18.96040137887331
 33
0.0
  0
POINT
  5
6A
330
63
100
AcDbEntity
  8
Defpoints
 62
     0
100
AcDbPoint
 10
749.9451546139488
 20
18.96040137887331
 30
4.599999999999999
  0
POINT
  5
6B
330
63
100
AcDbEntity
  8
Defpoints
 62
     0
100
AcDbPoint
 10
744.4819550617203
 20
16.47978640420848
 30
4.599999999999999
  0
ENDBLK
  5
6D
330
63
100
AcDbEntity
  8
0
100
AcDbBlockEnd
  0
BLOCK
  5
75
330
6E
100
AcDbEntity
  8
0
100
AcDbBlockBegin
  2
*D7
 70
     1
 10
0.0
 20
0.0
 30
0.0
  3
*D7
  1

  0
LINE
  5
6F
330
6E
100
AcDbEntity
  8
bem
 62
     0
370
    -2
100
AcDbLine
 10
795.8685446811077
 20
40.81336452312439
 30
0.0
 11
788.7218070425565
 21
33.23503452436068
 31
0.0
  0
MTEXT
  5
70
330
6E
100
AcDbEntity
  8
bem
 62
     0
100
AcDbMText
 10
791.7886849786807
 20
39.22001189853347
 30
0.0
 40
2.5
 41
0.0
 71
     5
 72
     1
  1
R58
 11
0.6860868133009065
 21
0.7275196798813123
 31
0.0
 73
     1
 44
1.0
  0
LINE
  5
71
330
6E
100
AcDbEntity
  8
bem
 62
     0
370
    -2
100
AcDbLine
 10
747.2135548378494
 20
-10.77990610846109
 30
0.0
 11
787.0065900093043
 21
31.4162353246574
 31
0.0
  0
SOLID
  5
72
330
6E
100
AcDbEntity
  8
bem
 62
     0
100
AcDbTrace
 10
788.418673842606
 20
33.52090402990268
 30
0.0
 11
789.024940242507
 21
32.94916501881863
 31
0.0
 12
787.0065900093043
 22
31.4162353246574
 32
0.0
 13
787.0065900093043
 23
31.4162353246574
 33
0.0
  0
POINT
  5
73
330
6E
100
AcDbEntity
  8
Defpoints
 62
     0
100
AcDbPoint
 10
787.0065900093043
 20
31.4162353246574
 30
0.0
  0
POINT
  5
74
330
6E
100
AcDbEntity
  8
Defpoints
 62
     0
100
AcDbPoint
 10
747.2135548378494
 20
-10.77990610846109
 30
0.0
  0
ENDBLK
  5
76
330
6E
100
AcDbEntity
  8
0
100
AcDbBlockEnd
  0
BLOCK
  5
81
330
77
100
AcDbEntity
  8
0
100
AcDbBlockBegin
  2
*D8
 70
     1
 10
0.0
 20
0.0
 30
0.0
  3
*D8
  1

  0
LINE
  5
78
330
77
100
AcDbEntity
  8
bem
 62
     0
370
    -2
100
AcDbLine
 10
711.5885548378399
 20
0.2200938915470199
 30
0.0
 11
686.1779737058133
 21
0.2200938915470271
 31
0.0
  0
LINE
  5
79
330
77
100
AcDbEntity
  8
bem
 62
     0
370
    -2
100
AcDbLine
 10
711.5885548378399
 20
17.72009389154097
 30
0.0
 11
686.1779737058133
 21
17.72009389154097
 31
0.0
  0
LINE
  5
7A
330
77
100
AcDbEntity
  8
bem
 62
     0
370
    -2
100
AcDbLine
 10
687.4279737058133
 20
2.720093891547026
 30
0.0
 11
687.4279737058133
 21
15.22009389154097
 31
0.0
  0
SOLID
  5
7B
330
77
100
AcDbEntity
  8
bem
 62
     0
100
AcDbTrace
 10
687.0113070391466
 20
2.720093891547026
 30
0.0
 11
687.8446403724799
 21
2.720093891547026
 31
0.0
 12
687.4279737058133
 22
0.2200938915470268
 32
0.0
 13
687.4279737058133
 23
0.2200938915470268
 33
0.0
  0
SOLID
  5
7C
330
77
100
AcDbEntity
  8
bem
 62
     0
100
AcDbTrace
 10
687.0113070391466
 20
15.22009389154097
 30
0.0
 11
687.8446403724799
 21
15.22009389154097
 31
0.0
 12
687.4279737058133
 22
17.72009389154097
 32
0.0
 13
687.4279737058133
 23
17.72009389154097
 33
0.0
  0
MTEXT
  5
7D
330
77
100
AcDbEntity
  8
bem
 62
     0
100
AcDbMText
 10
685.3446403724799
 20
8.970093891544111
 30
0.0
 40
2.5
 41
0.0
 71
     5
 72
     1
  1
17,5
 11
0.0000000000000001
 21
1.0
 31
0.0
 73
     1
 44
1.0
  0
POINT
  5
7E
330
77
100
AcDbEntity
  8
Defpoints
 62
     0
100
AcDbPoint
 10
712.2135548378398
 20
0.2200938915470197
 30
0.0
  0
POINT
  5
7F
330
77
100
AcDbEntity
  8
Defpoints
 62
     0
100
AcDbPoint
 10
712.2135548378398
 20
17.72009389154097
 30
-0.8000000000000003
  0
POINT
  5
80
330
77
100
AcDbEntity
  8
Defpoints
 62
     0
100
AcDbPoint
 10
687.4279737058133
 20
17.72009389154097
 30
0.0
  0
ENDBLK
  5
82
330
77
100
AcDbEntity
  8
0
100
AcDbBlockEnd
  0
BLOCK
  5
8D
330
83
100
AcDbEntity
  8
0
100
AcDbBlockBegin
  2
*D9
 70
     1
 10
0.0
 20
0.0
 30
0.0
  3
*D9
  1

  0
LINE
  5
84
330
83
100
AcDbEntity
  8
bem
 62
     0
370
    -2
100
AcDbLine
 10
711.5885548378399
 20
0.2200938915470199
 30
0.0
 11
679.1586008865394
 21
0.2200938915470291
 31
0.0
  0
LINE
  5
85
330
83
100
AcDbEntity
  8
bem
 62
     0
370
    -2
100
AcDbLine
 10
746.5885548378427
 20
47.22009389154304
 30
0.0
 11
679.1586008865394
 21
47.22009389154306
 31
0.0
  0
LINE
  5
86
330
83
100
AcDbEntity
  8
bem
 62
     0
370
    -2
100
AcDbLine
 10
680.4086008865393
 20
2.720093891547028
 30
0.0
 11
680.4086008865393
 21
44.72009389154306
 31
0.0
  0
SOLID
  5
87
330
83
100
AcDbEntity
  8
bem
 62
     0
100
AcDbTrace
 10
679.9919342198727
 20
2.720093891547028
 30
0.0
 11
680.825267553206
 21
2.720093891547028
 31
0.0
 12
680.4086008865393
 22
0.2200938915470287
 32
0.0
 13
680.4086008865393
 23
0.2200938915470287
 33
0.0
  0
SOLID
  5
88
330
83
100
AcDbEntity
  8
bem
 62
     0
100
AcDbTrace
 10
679.9919342198727
 20
44.72009389154306
 30
0.0
 11
680.825267553206
 21
44.72009389154306
 31
0.0
 12
680.4086008865393
 22
47.22009389154306
 32
0.0
 13
680.4086008865393
 23
47.22009389154306
 33
0.0
  0
MTEXT
  5
89
330
83
100
AcDbEntity
  8
bem
 62
     0
100
AcDbMText
 10
678.5336008865393
 20
23.72009389154515
 30
0.0
 40
2.5
 41
0.0
 71
     5
 72
     1
  1
47
 11
0.0000000000000001
 21
1.0
 31
0.0
 73
     1
 44
1.0
  0
POINT
  5
8A
330
83
100
AcDbEntity
  8
Defpoints
 62
     0
100
AcDbPoint
 10
712.2135548378398
 20
0.2200938915470197
 30
0.0
  0
POINT
  5
8B
330
83
100
AcDbEntity
  8
Defpoints
 62
     0
100
AcDbPoint
 10
747.2135548378426
 20
47.22009389154304
 30
0.0
  0
POINT
  5
8C
330
83
100
AcDbEntity
  8
Defpoints
 62
     0
100
AcDbPoint
 10
680.4086008865393
 20
47.22009389154306
 30
0.0
  0
ENDBLK
  5
8E
330
83
100
AcDbEntity
  8
0
100
AcDbBlockEnd
  0
BLOCK
  5
99
330
8F
100
AcDbEntity
  8
0
100
AcDbBlockBegin
  2
*D10
 70
     1
 10
0.0
 20
0.0
 30
0.0
  3
*D10
  1

  0
LINE
  5
90
330
8F
100
AcDbEntity
  8
bem
 62
     0
370
    -2
100
AcDbLine
 10
746.5885548378494
 20
-10.77990610846103
 30
0.0
 11
672.9351163333996
 21
-10.77990610846101
 31
0.0
  0
LINE
  5
91
330
8F
100
AcDbEntity
  8
bem
 62
     0
370
    -2
100
AcDbLine
 10
746.5991830079043
 20
47.22009291776717
 30
0.0
 11
672.9351163333996
 21
47.22009291776719
 31
0.0
  0
LINE
  5
92
330
8F
100
AcDbEntity
  8
bem
 62
     0
370
    -2
100
AcDbLine
 10
674.1851163333996
 20
-8.279906108461013
 30
0.0
 11
674.1851163333996
 21
44.72009291776719
 31
0.0
  0
SOLID
  5
93
330
8F
100
AcDbEntity
  8
bem
 62
     0
100
AcDbTrace
 10
673.768449666733
 20
-8.279906108461013
 30
0.0
 11
674.6017830000662
 21
-8.279906108461013
 31
0.0
 12
674.1851163333996
 22
-10.77990610846101
 32
0.0
 13
674.1851163333996
 23
-10.77990610846101
 33
0.0
  0
SOLID
  5
94
330
8F
100
AcDbEntity
  8
bem
 62
     0
100
AcDbTrace
 10
673.768449666733
 20
44.72009291776719
 30
0.0
 11
674.6017830000662
 21
44.72009291776719
 31
0.0
 12
674.1851163333996
 22
47.22009291776719
 32
0.0
 13
674.1851163333996
 23
47.22009291776719
 33
0.0
  0
MTEXT
  5
95
330
8F
100
AcDbEntity
  8
bem
 62
     0
100
AcDbMText
 10
672.3101163333995
 20
18.22009340465319
 30
0.0
 40
2.5
 41
0.0
 71
     5
 72
     1
  1
58
 11
0.0000000000000001
 21
1.0
 31
0.0
 73
     1
 44
1.0
  0
POINT
  5
96
330
8F
100
AcDbEntity
  8
Defpoints
 62
     0
100
AcDbPoint
 10
747.2135548378494
 20
-10.77990610846103
 30
0.0
  0
POINT
  5
97
330
8F
100
AcDbEntity
  8
Defpoints
 62
     0
100
AcDbPoint
 10
747.2241830079043
 20
47.22009291776717
 30
0.0
  0
POINT
  5
98
330
8F
100
AcDbEntity
  8
Defpoints
 62
     0
100
AcDbPoint
 10
674.1851163333996
 20
47.22009291776719
 30
0.0
  0
ENDBLK
  5
9A
330
8F
100
AcDbEntity
  8
0
100
AcDbBlockEnd
  0
BLOCK
  5
A5
330
9B
100
AcDbEntity
  8
0
100
AcDbBlockBegin
  2
*D11
 70
     1
 10
0.0
 20
0.0
 30
0.0
  3
*D11
  1

  0
LINE
  5
9C
330
9B
100
AcDbEntity
  8
bem
 62
     0
370
    -2
100
AcDbLine
 10
138.4981294180497
 20
8.220093891546994
 30
0.0
 11
139.7903044272789
 21
8.220093891546994
 31
0.0
  0
LINE
  5
9D
330
9B
100
AcDbEntity
  8
bem
 62
     0
370
    -2
100
AcDbLine
 10
138.4981294180497
 20
43.22009389154712
 30
0.0
 11
139.7903044272789
 21
43.22009389154712
 31
0.0
  0
LINE
  5
9E
330
9B
100
AcDbEntity
  8
bem
 62
     0
370
    -2
100
AcDbLine
 10
138.5403044272789
 20
10.72009389154699
 30
0.0
 11
138.5403044272789
 21
40.72009389154712
 31
0.0
  0
SOLID
  5
9F
330
9B
100
AcDbEntity
  8
bem
 62
     0
100
AcDbTrace
 10
138.1236377606123
 20
10.72009389154699
 30
0.0
 11
138.9569710939456
 21
10.72009389154699
 31
0.0
 12
138.5403044272789
 22
8.220093891546994
 32
0.0
 13
138.5403044272789
 23
8.220093891546994
 33
0.0
  0
SOLID
  5
A0
330
9B
100
AcDbEntity
  8
bem
 62
     0
100
AcDbTrace
 10
138.1236377606123
 20
40.72009389154712
 30
0.0
 11
138.9569710939456
 21
40.72009389154712
 31
0.0
 12
138.5403044272789
 22
43.22009389154712
 32
0.0
 13
138.5403044272789
 23
43.22009389154712
 33
0.0
  0
MTEXT
  5
A1
330
9B
100
AcDbEntity
  8
bem
 62
     0
100
AcDbMText
 10
134.7903044272789
 20
25.72009389154708
 30
0.0
 40
2.5
 41
0.0
 71
     5
 72
     1
  1
35\S+0,05^  0;
 11
0.0000000000000001
 21
1.0
 31
0.0
 73
     1
 44
1.0
  0
POINT
  5
A2
330
9B
100
AcDbEntity
  8
Defpoints
 62
     0
100
AcDbPoint
 10
137.8731294180497
 20
8.220093891546994
 30
0.0
  0
POINT
  5
A3
330
9B
100
AcDbEntity
  8
Defpoints
 62
     0
100
AcDbPoint
 10
137.8731294180497
 20
43.22009389154712
 30
0.0
  0
POINT
  5
A4
330
9B
100
AcDbEntity
  8
Defpoints
 62
     0
100
AcDbPoint
 10
138.5403044272789
 20
43.22009389154712
 30
0.0
  0
ENDBLK
  5
A6
330
9B
100
AcDbEntity
  8
0
100
AcDbBlockEnd
  0
BLOCK
  5
B1
330
A7
100
AcDbEntity
  8
0
100
AcDbBlockBegin
  2
*D12
 70
     1
 10
0.0
 20
0.0
 30
0.0
  3
*D12
  1

  0
LINE
  5
A8
330
A7
100
AcDbEntity
  8
bem
 62
     0
370
    -2
100
AcDbLine
 10
87.62312941804955
 20
7.59509389154709
 30
0.0
 11
87.62312941804955
 21
-10.22172111733259
 31
0.0
  0
LINE
  5
A9
330
A7
100
AcDbEntity
  8
bem
 62
     0
370
    -2
100
AcDbLine
 10
188.1231294180498
 20
7.595093891547048
 30
0.0
 11
188.1231294180498
 21
-10.22172111733259
 31
0.0
  0
LINE
  5
AA
330
A7
100
AcDbEntity
  8
bem
 62
     0
370
    -2
100
AcDbLine
 10
90.12312941804955
 20
-8.971721117332592
 30
0.0
 11
185.6231294180498
 21
-8.971721117332592
 31
0.0
  0
SOLID
  5
AB
330
A7
100
AcDbEntity
  8
bem
 62
     0
100
AcDbTrace
 10
90.12312941804955
 20
-8.555054450665926
 30
0.0
 11
90.12312941804955
 21
-9.388387783999258
 31
0.0
 12
87.62312941804955
 22
-8.971721117332592
 32
0.0
 13
87.62312941804955
 23
-8.971721117332592
 33
0.0
  0
SOLID
  5
AC
330
A7
100
AcDbEntity
  8
bem
 62
     0
100
AcDbTrace
 10
185.6231294180498
 20
-8.555054450665926
 30
0.0
 11
185.6231294180498
 21
-9.388387783999258
 31
0.0
 12
188.1231294180498
 22
-8.971721117332592
 32
0.0
 13
188.1231294180498
 23
-8.971721117332592
 33
0.0
  0
MTEXT
  5
AD
330
A7
100
AcDbEntity
  8
bem
 62
     0
100
AcDbMText
 10
137.8731294180497
 20
-5.013387783999259
 30
0.0
 40
2.5
 41
0.0
 71
     5
 72
     1
  1
100,5\S+0,05^  0;
 73
     1
 44
1.0
  0
POINT
  5
AE
330
A7
100
AcDbEntity
  8
Defpoints
 62
     0
100
AcDbPoint
 10
87.62312941804955
 20
8.22009389154709
 30
0.0
  0
POINT
  5
AF
330
A7
100
AcDbEntity
  8
Defpoints
 62
     0
100
AcDbPoint
 10
188.1231294180498
 20
8.220093891547048
 30
0.0
  0
POINT
  5
B0
330
A7
100
AcDbEntity
  8
Defpoints
 62
     0
100
AcDbPoint
 10
188.1231294180498
 20
-8.971721117332592
 30
0.0
  0
ENDBLK
  5
B2
330
A7
100
AcDbEntity
  8
0
100
AcDbBlockEnd
  0
BLOCK
  5
BD
330
B3
100
AcDbEntity
  8
0
100
AcDbBlockBegin
  2
*D13
 70
     1
 10
0.0
 20
0.0
 30
0.0
  3
*D13
  1

  0
LINE
  5
B4
330
B3
100
AcDbEntity
  8
bem
 62
     0
370
    -2
100
AcDbLine
 10
83.62312941804972
 20
7.595093891547021
 30
0.0
 11
83.62312941804972
 21
-15.25658326382215
 31
0.0
  0
LINE
  5
B5
330
B3
100
AcDbEntity
  8
bem
 62
     0
370
    -2
100
AcDbLine
 10
192.123129418048
 20
7.595093891551206
 30
0.0
 11
192.123129418048
 21
-15.25658326382215
 31
0.0
  0
LINE
  5
B6
330
B3
100
AcDbEntity
  8
bem
 62
     0
370
    -2
100
AcDbLine
 10
86.12312941804972
 20
-14.00658326382215
 30
0.0
 11
189.623129418048
 21
-14.00658326382215
 31
0.0
  0
SOLID
  5
B7
330
B3
100
AcDbEntity
  8
bem
 62
     0
100
AcDbTrace
 10
86.12312941804972
 20
-13.58991659715548
 30
0.0
 11
86.12312941804972
 21
-14.42324993048881
 31
0.0
 12
83.62312941804972
 22
-14.00658326382215
 32
0.0
 13
83.62312941804972
 23
-14.00658326382215
 33
0.0
  0
SOLID
  5
B8
330
B3
100
AcDbEntity
  8
bem
 62
     0
100
AcDbTrace
 10
189.623129418048
 20
-13.58991659715548
 30
0.0
 11
189.623129418048
 21
-14.42324993048881
 31
0.0
 12
192.123129418048
 22
-14.00658326382215
 32
0.0
 13
192.123129418048
 23
-14.00658326382215
 33
0.0
  0
MTEXT
  5
B9
330
B3
100
AcDbEntity
  8
bem
 62
     0
100
AcDbMText
 10
137.8731294180488
 20
-11.92324993048881
 30
0.0
 40
2.5
 41
0.0
 71
     5
 72
     1
  1
108,5
 73
     1
 44
1.0
  0
POINT
  5
BA
330
B3
100
AcDbEntity
  8
Defpoints
 62
     0
100
AcDbPoint
 10
83.62312941804972
 20
8.220093891547021
 30
0.0
  0
POINT
  5
BB
330
B3
100
AcDbEntity
  8
Defpoints
 62
     0
100
AcDbPoint
 10
192.123129418048
 20
8.220093891551206
 30
0.0
  0
POINT
  5
BC
330
B3
100
AcDbEntity
  8
Defpoints
 62
     0
100
AcDbPoint
 10
192.123129418048
 20
-14.00658326382215
 30
0.0
  0
ENDBLK
  5
BE
330
B3
100
AcDbEntity
  8
0
100
AcDbBlockEnd
  0
BLOCK
  5
14C
330
142
100
AcDbEntity
  8
0
100
AcDbBlockBegin
  2
*D15
 70
     1
 10
0.0
 20
0.0
 30
0.0
  3
*D15
  1

  0
LINE
  5
23F
330
142
100
AcDbEntity
  8
Bemaßung
 62
     0
370
    -2
100
AcDbLine
 10
85.13600642706832
 20
18.16495340962853
 30
0.0
 11
85.13600642706832
 21
-8.079919872140465
 31
0.0
  0
LINE
  5
240
330
142
100
AcDbEntity
  8
Bemaßung
 62
     0
370
    -2
100
AcDbLine
 10
155.136006427057
 20
18.16495340965066
 30
0.0
 11
155.136006427057
 21
-8.079919872140465
 31
0.0
  0
LINE
  5
241
330
142
100
AcDbEntity
  8
Bemaßung
 62
     0
370
    -2
100
AcDbLine
 10
87.63600642706832
 20
-6.829919872140465
 30
0.0
 11
152.636006427057
 21
-6.829919872140465
 31
0.0
  0
SOLID
  5
242
330
142
100
AcDbEntity
  8
Bemaßung
 62
     0
100
AcDbTrace
 10
87.63600642706832
 20
-6.413253205473798
 30
0.0
 11
87.63600642706832
 21
-7.246586538807131
 31
0.0
 12
85.13600642706832
 22
-6.829919872140465
 32
0.0
 13
85.13600642706832
 23
-6.829919872140465
 33
0.0
  0
SOLID
  5
243
330
142
100
AcDbEntity
  8
Bemaßung
 62
     0
100
AcDbTrace
 10
152.636006427057
 20
-6.413253205473798
 30
0.0
 11
152.636006427057
 21
-7.246586538807131
 31
0.0
 12
155.136006427057
 22
-6.829919872140465
 32
0.0
 13
155.136006427057
 23
-6.829919872140465
 33
0.0
  0
MTEXT
  5
244
330
142
100
AcDbEntity
  8
Bemaßung
 62
     0
100
AcDbMText
 10
120.1360064270626
 20
-4.954919872140465
 30
0.0
 40
2.5
 41
0.0
 71
     5
 72
     1
  1
70
 73
     1
 44
1.0
  0
POINT
  5
245
330
142
100
AcDbEntity
  8
Defpoints
 62
     0
100
AcDbPoint
 10
85.13600642706832
 20
18.78995340962853
 30
-0.8000000000000003
  0
POINT
  5
246
330
142
100
AcDbEntity
  8
Defpoints
 62
     0
100
AcDbPoint
 10
155.136006427057
 20
18.78995340965066
 30
-0.8000000000000003
  0
POINT
  5
247
330
142
100
AcDbEntity
  8
Defpoints
 62
     0
100
AcDbPoint
 10
155.136006427057
 20
-6.829919872140465
 30
0.0
  0
ENDBLK
  5
14D
330
142
100
AcDbEntity
  8
0
100
AcDbBlockEnd
  0
BLOCK
  5
158
330
14E
100
AcDbEntity
  8
0
100
AcDbBlockBegin
  2
*D16
 70
     1
 10
0.0
 20
0.0
 30
0.0
  3
*D16
  1

  0
LINE
  5
259
330
14E
100
AcDbEntity
  8
bem
 62
     0
370
    -2
100
AcDbLine
 10
84.51100642706832
 20
1.289953409634591
 30
0.0
 11
59.10042529504175
 21
1.289953409634599
 31
0.0
  0
LINE
  5
25A
330
14E
100
AcDbEntity
  8
bem
 62
     0
370
    -2
100
AcDbLine
 10
84.51100642706832
 20
18.78995340962853
 30
0.0
 11
59.10042529504176
 21
18.78995340962854
 31
0.0
  0
LINE
  5
25B
330
14E
100
AcDbEntity
  8
bem
 62
     0
370
    -2
100
AcDbLine
 10
60.35042529504175
 20
3.789953409634598
 30
0.0
 11
60.35042529504176
 21
16.28995340962854
 31
0.0
  0
SOLID
  5
25C
330
14E
100
AcDbEntity
  8
bem
 62
     0
100
AcDbTrace
 10
59.93375862837509
 20
3.789953409634598
 30
0.0
 11
60.76709196170842
 21
3.789953409634598
 31
0.0
 12
60.35042529504175
 22
1.289953409634598
 32
0.0
 13
60.35042529504175
 23
1.289953409634598
 33
0.0
  0
SOLID
  5
25D
330
14E
100
AcDbEntity
  8
bem
 62
     0
100
AcDbTrace
 10
59.9337586283751
 20
16.28995340962854
 30
0.0
 11
60.76709196170842
 21
16.28995340962854
 31
0.0
 12
60.35042529504176
 22
18.78995340962854
 32
0.0
 13
60.35042529504176
 23
18.78995340962854
 33
0.0
  0
MTEXT
  5
25E
330
14E
100
AcDbEntity
  8
bem
 62
     0
100
AcDbMText
 10
58.26709196170842
 20
10.03995340963158
 30
0.0
 40
2.5
 41
0.0
 71
     5
 72
     1
  1
17,5
 11
0.0000000000000001
 21
1.0
 31
0.0
 73
     1
 44
1.0
  0
POINT
  5
25F
330
14E
100
AcDbEntity
  8
Defpoints
 62
     0
100
AcDbPoint
 10
85.13600642706832
 20
1.289953409634591
 30
0.0
  0
POINT
  5
260
330
14E
100
AcDbEntity
  8
Defpoints
 62
     0
100
AcDbPoint
 10
85.13600642706832
 20
18.78995340962853
 30
-0.8000000000000003
  0
POINT
  5
261
330
14E
100
AcDbEntity
  8
Defpoints
 62
     0
100
AcDbPoint
 10
60.35042529504176
 20
18.78995340962854
 30
0.0
  0
ENDBLK
  5
159
330
14E
100
AcDbEntity
  8
0
100
AcDbBlockEnd
  0
BLOCK
  5
164
330
15A
100
AcDbEntity
  8
0
100
AcDbBlockBegin
  2
*D17
 70
     1
 10
0.0
 20
0.0
 30
0.0
  3
*D17
  1

  0
LINE
  5
15B
330
15A
100
AcDbEntity
  8
bem
 62
     0
370
    -2
100
AcDbLine
 10
46.29725488049333
 20
99.32180541434803
 30
0.0
 11
46.29725488049333
 21
76.47012825897886
 31
0.0
  0
LINE
  5
15C
330
15A
100
AcDbEntity
  8
bem
 62
     0
370
    -2
100
AcDbLine
 10
154.7972548804916
 20
99.32180541435222
 30
0.0
 11
154.7972548804916
 21
76.47012825897886
 31
0.0
  0
LINE
  5
15D
330
15A
100
AcDbEntity
  8
bem
 62
     0
370
    -2
100
AcDbLine
 10
48.79725488049334
 20
77.72012825897886
 30
0.0
 11
152.2972548804916
 21
77.72012825897886
 31
0.0
  0
SOLID
  5
15E
330
15A
100
AcDbEntity
  8
bem
 62
     0
100
AcDbTrace
 10
48.79725488049334
 20
78.13679492564553
 30
0.0
 11
48.79725488049334
 21
77.30346159231219
 31
0.0
 12
46.29725488049333
 22
77.72012825897886
 32
0.0
 13
46.29725488049333
 23
77.72012825897886
 33
0.0
  0
SOLID
  5
15F
330
15A
100
AcDbEntity
  8
bem
 62
     0
100
AcDbTrace
 10
152.2972548804916
 20
78.13679492564553
 30
0.0
 11
152.2972548804916
 21
77.30346159231219
 31
0.0
 12
154.7972548804916
 22
77.72012825897886
 32
0.0
 13
154.7972548804916
 23
77.72012825897886
 33
0.0
  0
MTEXT
  5
160
330
15A
100
AcDbEntity
  8
bem
 62
     0
100
AcDbMText
 10
100.5472548804924
 20
79.80346159231219
 30
0.0
 40
2.5
 41
0.0
 71
     5
 72
     1
  1
108,5
 73
     1
 44
1.0
  0
POINT
  5
161
330
15A
100
AcDbEntity
  8
Defpoints
 62
     0
100
AcDbPoint
 10
46.29725488049333
 20
99.94680541434803
 30
0.0
  0
POINT
  5
162
330
15A
100
AcDbEntity
  8
Defpoints
 62
     0
100
AcDbPoint
 10
154.7972548804916
 20
99.94680541435222
 30
0.0
  0
POINT
  5
163
330
15A
100
AcDbEntity
  8
Defpoints
 62
     0
100
AcDbPoint
 10
154.7972548804916
 20
77.72012825897886
 30
0.0
  0
ENDBLK
  5
165
330
15A
100
AcDbEntity
  8
0
100
AcDbBlockEnd
  0
BLOCK
  5
170
330
166
100
AcDbEntity
  8
0
100
AcDbBlockBegin
  2
*D18
 70
     1
 10
0.0
 20
0.0
 30
0.0
  3
*D18
  1

  0
LINE
  5
213
330
166
100
AcDbEntity
  8
bem
 62
     0
370
    -2
100
AcDbLine
 10
50.29725488049316
 20
99.3218054143481
 30
0.0
 11
50.29725488049316
 21
81.50499040546842
 31
0.0
  0
LINE
  5
214
330
166
100
AcDbEntity
  8
bem
 62
     0
370
    -2
100
AcDbLine
 10
150.7972548804934
 20
99.32180541434806
 30
0.0
 11
150.7972548804934
 21
81.50499040546842
 31
0.0
  0
LINE
  5
215
330
166
100
AcDbEntity
  8
bem
 62
     0
370
    -2
100
AcDbLine
 10
52.79725488049316
 20
82.75499040546842
 30
0.0
 11
148.2972548804934
 21
82.75499040546842
 31
0.0
  0
SOLID
  5
216
330
166
100
AcDbEntity
  8
bem
 62
     0
100
AcDbTrace
 10
52.79725488049316
 20
83.1716570721351
 30
0.0
 11
52.79725488049316
 21
82.33832373880174
 31
0.0
 12
50.29725488049316
 22
82.75499040546842
 32
0.0
 13
50.29725488049316
 23
82.75499040546842
 33
0.0
  0
SOLID
  5
217
330
166
100
AcDbEntity
  8
bem
 62
     0
100
AcDbTrace
 10
148.2972548804934
 20
83.1716570721351
 30
0.0
 11
148.2972548804934
 21
82.33832373880174
 31
0.0
 12
150.7972548804934
 22
82.75499040546842
 32
0.0
 13
150.7972548804934
 23
82.75499040546842
 33
0.0
  0
MTEXT
  5
218
330
166
100
AcDbEntity
  8
bem
 62
     0
100
AcDbMText
 10
100.5472548804933
 20
86.71332373880174
 30
0.0
 40
2.5
 41
0.0
 71
     5
 72
     1
  1
100,5\S+0,05^  0;
 73
     1
 44
1.0
  0
POINT
  5
219
330
166
100
AcDbEntity
  8
Defpoints
 62
     0
100
AcDbPoint
 10
50.29725488049316
 20
99.9468054143481
 30
0.0
  0
POINT
  5
21A
330
166
100
AcDbEntity
  8
Defpoints
 62
     0
100
AcDbPoint
 10
150.7972548804934
 20
99.94680541434806
 30
0.0
  0
POINT
  5
21B
330
166
100
AcDbEntity
  8
Defpoints
 62
     0
100
AcDbPoint
 10
150.7972548804934
 20
82.75499040546842
 30
0.0
  0
ENDBLK
  5
171
330
166
100
AcDbEntity
  8
0
100
AcDbBlockEnd
  0
BLOCK
  5
17C
330
172
100
AcDbEntity
  8
0
100
AcDbBlockBegin
  2
*D19
 70
     1
 10
0.0
 20
0.0
 30
0.0
  3
*D19
  1

  0
LINE
  5
20A
330
172
100
AcDbEntity
  8
Bemaßung
 62
     0
370
    -2
100
AcDbLine
 10
101.1722548804875
 20
138.946805414344
 30
0.0
 11
166.1304339007946
 21
138.946805414344
 31
0.0
  0
LINE
  5
20B
330
172
100
AcDbEntity
  8
Bemaßung
 62
     0
370
    -2
100
AcDbLine
 10
101.1722548804874
 20
91.94680541434804
 30
0.0
 11
166.1304339007946
 21
91.94680541434804
 31
0.0
  0
LINE
  5
20C
330
172
100
AcDbEntity
  8
Bemaßung
 62
     0
370
    -2
100
AcDbLine
 10
164.8804339007946
 20
136.446805414344
 30
0.0
 11
164.8804339007946
 21
94.44680541434804
 31
0.0
  0
SOLID
  5
20D
330
172
100
AcDbEntity
  8
Bemaßung
 62
     0
100
AcDbTrace
 10
164.4637672341279
 20
136.446805414344
 30
0.0
 11
165.2971005674612
 21
136.446805414344
 31
0.0
 12
164.8804339007946
 22
138.946805414344
 32
0.0
 13
164.8804339007946
 23
138.946805414344
 33
0.0
  0
SOLID
  5
20E
330
172
100
AcDbEntity
  8
Bemaßung
 62
     0
100
AcDbTrace
 10
164.4637672341279
 20
94.44680541434804
 30
0.0
 11
165.2971005674612
 21
94.44680541434804
 31
0.0
 12
164.8804339007946
 22
91.94680541434804
 32
0.0
 13
164.8804339007946
 23
91.94680541434804
 33
0.0
  0
MTEXT
  5
20F
330
172
100
AcDbEntity
  8
Bemaßung
 62
     0
100
AcDbMText
 10
163.0054339007946
 20
115.446805414346
 30
0.0
 40
2.5
 41
0.0
 71
     5
 72
     1
  1
47
 11
0.0000000000000001
 21
1.0
 31
0.0
 73
     1
 44
1.0
  0
POINT
  5
210
330
172
100
AcDbEntity
  8
Defpoints
 62
     0
100
AcDbPoint
 10
100.5472548804875
 20
138.946805414344
 30
0.0
  0
POINT
  5
211
330
172
100
AcDbEntity
  8
Defpoints
 62
     0
100
AcDbPoint
 10
100.5472548804874
 20
91.94680541434804
 30
0.0
  0
POINT
  5
212
330
172
100
AcDbEntity
  8
Defpoints
 62
     0
100
AcDbPoint
 10
164.8804339007946
 20
91.94680541434804
 30
0.0
  0
ENDBLK
  5
17D
330
172
100
AcDbEntity
  8
0
100
AcDbBlockEnd
  0
BLOCK
  5
188
330
17E
100
AcDbEntity
  8
0
100
AcDbBlockBegin
  2
*D20
 70
     1
 10
0.0
 20
0.0
 30
0.0
  3
*D20
  1

  0
LINE
  5
17F
330
17E
100
AcDbEntity
  8
bem
 62
     0
370
    -2
100
AcDbLine
 10
101.1722548804933
 20
99.94680541434801
 30
0.0
 11
102.4644298897225
 21
99.94680541434801
 31
0.0
  0
LINE
  5
180
330
17E
100
AcDbEntity
  8
bem
 62
     0
370
    -2
100
AcDbLine
 10
101.1722548804933
 20
134.9468054143481
 30
0.0
 11
102.4644298897225
 21
134.9468054143481
 31
0.0
  0
LINE
  5
181
330
17E
100
AcDbEntity
  8
bem
 62
     0
370
    -2
100
AcDbLine
 10
101.2144298897226
 20
102.446805414348
 30
0.0
 11
101.2144298897226
 21
132.4468054143481
 31
0.0
  0
SOLID
  5
182
330
17E
100
AcDbEntity
  8
bem
 62
     0
100
AcDbTrace
 10
100.7977632230559
 20
102.446805414348
 30
0.0
 11
101.6310965563892
 21
102.446805414348
 31
0.0
 12
101.2144298897226
 22
99.94680541434801
 32
0.0
 13
101.2144298897226
 23
99.94680541434801
 33
0.0
  0
SOLID
  5
183
330
17E
100
AcDbEntity
  8
bem
 62
     0
100
AcDbTrace
 10
100.7977632230559
 20
132.4468054143481
 30
0.0
 11
101.6310965563892
 21
132.4468054143481
 31
0.0
 12
101.2144298897226
 22
134.9468054143481
 32
0.0
 13
101.2144298897226
 23
134.9468054143481
 33
0.0
  0
MTEXT
  5
184
330
17E
100
AcDbEntity
  8
bem
 62
     0
100
AcDbMText
 10
97.46442988972258
 20
117.4468054143481
 30
0.0
 40
2.5
 41
0.0
 71
     5
 72
     1
  1
35\S+0,05^  0;
 11
0.0000000000000001
 21
1.0
 31
0.0
 73
     1
 44
1.0
  0
POINT
  5
185
330
17E
100
AcDbEntity
  8
Defpoints
 62
     0
100
AcDbPoint
 10
100.5472548804933
 20
99.94680541434801
 30
0.0
  0
POINT
  5
186
330
17E
100
AcDbEntity
  8
Defpoints
 62
     0
100
AcDbPoint
 10
100.5472548804933
 20
134.9468054143481
 30
0.0
  0
POINT
  5
187
330
17E
100
AcDbEntity
  8
Defpoints
 62
     0
100
AcDbPoint
 10
101.2144298897226
 20
134.9468054143481
 30
0.0
  0
ENDBLK
  5
189
330
17E
100
AcDbEntity
  8
0
100
AcDbBlockEnd
  0
BLOCK
  5
193
330
18A
100
AcDbEntity
  8
0
100
AcDbBlockBegin
  2
*D21
 70
     1
 10
0.0
 20
0.0
 30
0.0
  3
*D21
  1

  0
LINE
  5
297
330
18A
100
AcDbEntity
  8
Bemaßung
 62
     0
370
    -2
100
AcDbLine
 10
133.3459402718866
 20
24.78804288019052
 30
0.0
 11
125.1439393499391
 21
21.06385046973791
 31
0.0
  0
LINE
  5
298
330
18A
100
AcDbEntity
  8
Bemaßung
 62
     0
370
    -2
100
AcDbLine
 10
115.128073504187
 20
16.51605634951919
 30
0.0
 11
112.8517403574252
 21
15.4824667767422
 31
0.0
  0
MTEXT
  5
299
330
18A
100
AcDbEntity
  8
Bemaßung
 62
     0
100
AcDbMText
 10
130.1047205166452
 20
25.37557070308684
 30
0.0
 40
2.5
 41
0.0
 71
     5
 72
     1
  1
\U+22056
 11
0.9105332587047389
 21
0.4134358291107938
 31
0.0
 73
     1
 44
1.0
  0
LINE
  5
29A
330
18A
100
AcDbEntity
  8
Bemaßung
 62
     0
370
    -2
100
AcDbLine
 10
117.4044066509489
 20
17.54964592229617
 30
0.0
 11
122.8676062031772
 21
20.03026089696092
 31
0.0
  0
SOLID
  5
29B
330
18A
100
AcDbEntity
  8
Bemaßung
 62
     0
100
AcDbTrace
 10
114.9558085753909
 20
16.89544520731282
 30
0.0
 11
115.3003384329832
 21
16.13666749172555
 31
0.0
 12
117.4044066509489
 22
17.54964592229617
 32
0.0
 13
117.4044066509489
 23
17.54964592229617
 33
0.0
  0
SOLID
  5
29C
330
18A
100
AcDbEntity
  8
Bemaßung
 62
     0
100
AcDbTrace
 10
124.9716744211429
 20
21.44323932753154
 30
0.0
 11
125.3162042787353
 21
20.68446161194426
 31
0.0
 12
122.8676062031772
 22
20.03026089696092
 32
0.0
 13
122.8676062031772
 23
20.03026089696092
 33
0.0
  0
POINT
  5
29D
330
18A
100
AcDbEntity
  8
Defpoints
 62
     0
100
AcDbPoint
 10
122.8676062031772
 20
20.03026089696092
 30
4.599999999999999
  0
POINT
  5
29E
330
18A
100
AcDbEntity
  8
Defpoints
 62
     0
100
AcDbPoint
 10
117.4044066509489
 20
17.54964592229617
 30
4.599999999999999
  0
ENDBLK
  5
194
330
18A
100
AcDbEntity
  8
0
100
AcDbBlockEnd
  0
BLOCK
  5
19F
330
195
100
AcDbEntity
  8
0
100
AcDbBlockBegin
  2
*D22
 70
     1
 10
0.0
 20
0.0
 30
0.0
  3
*D22
  1

  0
LINE
  5
279
330
195
100
AcDbEntity
  8
bem
 62
     0
370
    -2
100
AcDbLine
 10
119.5110064270778
 20
-9.710046590373465
 30
0.0
 11
23.9965860060224
 21
-9.710046590373439
 31
0.0
  0
LINE
  5
27A
330
195
100
AcDbEntity
  8
bem
 62
     0
370
    -2
100
AcDbLine
 10
97.65002451047223
 20
44.01236465151263
 30
0.0
 11
23.99658600602242
 21
44.01236465151264
 31
0.0
  0
LINE
  5
27B
330
195
100
AcDbEntity
  8
bem
 62
     0
370
    -2
100
AcDbLine
 10
25.24658600602241
 20
-7.210046590373439
 30
0.0
 11
25.24658600602242
 21
41.51236465151264
 31
0.0
  0
SOLID
  5
27C
330
195
100
AcDbEntity
  8
bem
 62
     0
100
AcDbTrace
 10
24.82991933935574
 20
-7.210046590373439
 30
0.0
 11
25.66325267268908
 21
-7.210046590373439
 31
0.0
 12
25.24658600602241
 22
-9.710046590373439
 32
0.0
 13
25.24658600602241
 23
-9.710046590373439
 33
0.0
  0
SOLID
  5
27D
330
195
100
AcDbEntity
  8
bem
 62
     0
100
AcDbTrace
 10
24.82991933935576
 20
41.51236465151264
 30
0.0
 11
25.66325267268909
 21
41.51236465151264
 31
0.0
 12
25.24658600602242
 22
44.01236465151264
 32
0.0
 13
25.24658600602242
 23
44.01236465151264
 33
0.0
  0
MTEXT
  5
27E
330
195
100
AcDbEntity
  8
bem
 62
     0
100
AcDbMText
 10
23.16325267268908
 20
17.1511590305696
 30
0.0
 40
2.5
 41
0.0
 71
     5
 72
     1
  1
53,72
 11
0.0000000000000001
 21
1.0
 31
0.0
 73
     1
 44
1.0
  0
POINT
  5
27F
330
195
100
AcDbEntity
  8
Defpoints
 62
     0
100
AcDbPoint
 10
120.1360064270778
 20
-9.710046590373465
 30
0.0
  0
POINT
  5
280
330
195
100
AcDbEntity
  8
Defpoints
 62
     0
100
AcDbPoint
 10
98.27502451047223
 20
44.01236465151263
 30
0.0
  0
POINT
  5
281
330
195
100
AcDbEntity
  8
Defpoints
 62
     0
100
AcDbPoint
 10
25.24658600602242
 20
44.01236465151264
 30
0.0
  0
ENDBLK
  5
1A0
330
195
100
AcDbEntity
  8
0
100
AcDbBlockEnd
  0
BLOCK
  5
1AB
330
1A1
100
AcDbEntity
  8
0
100
AcDbBlockBegin
  2
*D23
 70
     1
 10
0.0
 20
0.0
 30
0.0
  3
*D23
  1

  0
LINE
  5
262
330
1A1
100
AcDbEntity
  8
bem
 62
     0
370
    -2
100
AcDbLine
 10
84.51100642706832
 20
1.289953409634591
 30
0.0
 11
52.08105247576781
 21
1.289953409634601
 31
0.0
  0
LINE
  5
263
330
1A1
100
AcDbEntity
  8
bem
 62
     0
370
    -2
100
AcDbLine
 10
119.5110064270711
 20
48.28995340963061
 30
0.0
 11
52.08105247576781
 21
48.28995340963063
 31
0.0
  0
LINE
  5
264
330
1A1
100
AcDbEntity
  8
bem
 62
     0
370
    -2
100
AcDbLine
 10
53.33105247576781
 20
3.7899534096346
 30
0.0
 11
53.33105247576781
 21
45.78995340963063
 31
0.0
  0
SOLID
  5
265
330
1A1
100
AcDbEntity
  8
bem
 62
     0
100
AcDbTrace
 10
52.91438580910114
 20
3.789953409634601
 30
0.0
 11
53.74771914243447
 21
3.7899534096346
 31
0.0
 12
53.33105247576781
 22
1.2899534096346
 32
0.0
 13
53.33105247576781
 23
1.2899534096346
 33
0.0
  0
SOLID
  5
266
330
1A1
100
AcDbEntity
  8
bem
 62
     0
100
AcDbTrace
 10
52.91438580910114
 20
45.78995340963063
 30
0.0
 11
53.74771914243448
 21
45.78995340963063
 31
0.0
 12
53.33105247576781
 22
48.28995340963063
 32
0.0
 13
53.33105247576781
 23
48.28995340963063
 33
0.0
  0
MTEXT
  5
267
330
1A1
100
AcDbEntity
  8
bem
 62
     0
100
AcDbMText
 10
51.45605247576781
 20
24.78995340963262
 30
0.0
 40
2.5
 41
0.0
 71
     5
 72
     1
  1
47
 11
0.0000000000000001
 21
1.0
 31
0.0
 73
     1
 44
1.0
  0
POINT
  5
268
330
1A1
100
AcDbEntity
  8
Defpoints
 62
     0
100
AcDbPoint
 10
85.13600642706832
 20
1.289953409634591
 30
0.0
  0
POINT
  5
269
330
1A1
100
AcDbEntity
  8
Defpoints
 62
     0
100
AcDbPoint
 10
120.1360064270711
 20
48.28995340963061
 30
0.0
  0
POINT
  5
26A
330
1A1
100
AcDbEntity
  8
Defpoints
 62
     0
100
AcDbPoint
 10
53.33105247576781
 20
48.28995340963063
 30
0.0
  0
ENDBLK
  5
1AC
330
1A1
100
AcDbEntity
  8
0
100
AcDbBlockEnd
  0
BLOCK
  5
1B6
330
1AD
100
AcDbEntity
  8
0
100
AcDbBlockBegin
  2
*D24
 70
     1
 10
0.0
 20
0.0
 30
0.0
  3
*D24
  1

  0
LINE
  5
271
330
1AD
100
AcDbEntity
  8
Bemaßung
 62
     0
370
    -2
100
AcDbLine
 10
99.14729398269811
 20
26.01986342367651
 30
0.0
 11
88.77953363498049
 21
20.67003571772135
 31
0.0
  0
LINE
  5
272
330
1AD
100
AcDbEntity
  8
Bemaßung
 62
     0
370
    -2
100
AcDbLine
 10
81.49247921915634
 20
16.90987110153583
 30
0.0
 11
79.27081628750257
 21
15.76347945025972
 31
0.0
  0
MTEXT
  5
273
330
1AD
100
AcDbEntity
  8
Bemaßung
 62
     0
100
AcDbMText
 10
94.11891889860276
 20
25.76953117271512
 30
0.0
 40
2.5
 41
0.0
 71
     5
 72
     1
  1
\U+22053,2
 11
0.8886651726615097
 21
0.4585566605104426
 31
0.0
 73
     1
 44
1.0
  0
LINE
  5
274
330
1AD
100
AcDbEntity
  8
Bemaßung
 62
     0
370
    -2
100
AcDbLine
 10
83.71414215081012
 20
18.05626275281194
 30
0.0
 11
86.55787070332673
 21
19.52364406644524
 31
0.0
  0
SOLID
  5
275
330
1AD
100
AcDbEntity
  8
Bemaßung
 62
     0
100
AcDbTrace
 10
81.30141394394366
 20
17.28014825681146
 30
0.0
 11
81.68354449436902
 21
16.5395939462602
 31
0.0
 12
83.71414215081012
 22
18.05626275281194
 32
0.0
 13
83.71414215081012
 23
18.05626275281194
 33
0.0
  0
SOLID
  5
276
330
1AD
100
AcDbEntity
  8
Bemaßung
 62
     0
100
AcDbTrace
 10
88.58846835976782
 20
21.04031287299698
 30
0.0
 11
88.97059891019319
 21
20.29975856244572
 31
0.0
 12
86.55787070332673
 22
19.52364406644524
 32
0.0
 13
86.55787070332673
 23
19.52364406644524
 33
0.0
  0
POINT
  5
277
330
1AD
100
AcDbEntity
  8
Defpoints
 62
     0
100
AcDbPoint
 10
86.55787070332673
 20
19.52364406644524
 30
-0.8000000000000003
  0
POINT
  5
278
330
1AD
100
AcDbEntity
  8
Defpoints
 62
     0
100
AcDbPoint
 10
83.71414215081012
 20
18.05626275281194
 30
-0.8000000000000003
  0
ENDBLK
  5
1B7
330
1AD
100
AcDbEntity
  8
0
100
AcDbBlockEnd
  0
BLOCK
  5
1C2
330
1B8
100
AcDbEntity
  8
0
100
AcDbBlockBegin
  2
*D25
 70
     1
 10
0.0
 20
0.0
 30
0.0
  3
*D25
  1

  0
LINE
  5
288
330
1B8
100
AcDbEntity
  8
Bemaßung
 62
     0
370
    -2
100
AcDbLine
 10
73.88600642707683
 20
8.664953409634534
 30
0.0
 11
73.88600642707683
 21
-17.56697998406133
 31
0.0
  0
LINE
  5
289
330
1B8
100
AcDbEntity
  8
Bemaßung
 62
     0
370
    -2
100
AcDbLine
 10
166.3860064270712
 20
8.664953409638926
 30
0.0
 11
166.3860064270712
 21
-17.56697998406133
 31
0.0
  0
LINE
  5
28A
330
1B8
100
AcDbEntity
  8
Bemaßung
 62
     0
370
    -2
100
AcDbLine
 10
76.38600642707683
 20
-16.31697998406133
 30
0.0
 11
163.8860064270712
 21
-16.31697998406133
 31
0.0
  0
SOLID
  5
28B
330
1B8
100
AcDbEntity
  8
Bemaßung
 62
     0
100
AcDbTrace
 10
76.38600642707683
 20
-15.90031331739467
 30
0.0
 11
76.38600642707683
 21
-16.733646650728
 31
0.0
 12
73.88600642707683
 22
-16.31697998406133
 32
0.0
 13
73.88600642707683
 23
-16.31697998406133
 33
0.0
  0
SOLID
  5
28C
330
1B8
100
AcDbEntity
  8
Bemaßung
 62
     0
100
AcDbTrace
 10
163.8860064270712
 20
-15.90031331739467
 30
0.0
 11
163.8860064270712
 21
-16.733646650728
 31
0.0
 12
166.3860064270712
 22
-16.31697998406133
 32
0.0
 13
166.3860064270712
 23
-16.31697998406133
 33
0.0
  0
MTEXT
  5
28D
330
1B8
100
AcDbEntity
  8
Bemaßung
 62
     0
100
AcDbMText
 10
120.136006427074
 20
-14.233646650728
 30
0.0
 40
2.5
 41
0.0
 71
     5
 72
     1
  1
92,5
 73
     1
 44
1.0
  0
POINT
  5
28E
330
1B8
100
AcDbEntity
  8
Defpoints
 62
     0
100
AcDbPoint
 10
73.88600642707683
 20
9.289953409634534
 30
0.0
  0
POINT
  5
28F
330
1B8
100
AcDbEntity
  8
Defpoints
 62
     0
100
AcDbPoint
 10
166.3860064270712
 20
9.289953409638926
 30
0.0
  0
POINT
  5
290
330
1B8
100
AcDbEntity
  8
Defpoints
 62
     0
100
AcDbPoint
 10
166.3860064270712
 20
-16.31697998406133
 30
0.0
  0
ENDBLK
  5
1C3
330
1B8
100
AcDbEntity
  8
0
100
AcDbBlockEnd
  0
BLOCK
  5
1DD
330
1D6
100
AcDbEntity
  8
0
100
AcDbBlockBegin
  2
*D26
 70
     1
 10
0.0
 20
0.0
 30
0.0
  3
*D26
  1

  0
LINE
  5
291
330
1D6
100
AcDbEntity
  8
bem
 62
     0
370
    -2
100
AcDbLine
 10
168.7909962703354
 20
41.88322404121357
 30
0.0
 11
161.6442586317843
 21
34.30489404244989
 31
0.0
  0
MTEXT
  5
292
330
1D6
100
AcDbEntity
  8
bem
 62
     0
100
AcDbMText
 10
164.7111365679085
 20
40.28987141662257
 30
0.0
 40
2.5
 41
0.0
 71
     5
 72
     1
  1
R58
 11
0.6860868133009065
 21
0.7275196798813123
 31
0.0
 73
     1
 44
1.0
  0
LINE
  5
293
330
1D6
100
AcDbEntity
  8
bem
 62
     0
370
    -2
100
AcDbLine
 10
120.1360064270772
 20
-9.710046590371938
 30
0.0
 11
159.929041598532
 21
32.48609484274661
 31
0.0
  0
SOLID
  5
294
330
1D6
100
AcDbEntity
  8
bem
 62
     0
100
AcDbTrace
 10
161.3411254318338
 20
34.59076354799192
 30
0.0
 11
161.9473918317348
 21
34.01902453690783
 31
0.0
 12
159.929041598532
 22
32.48609484274661
 32
0.0
 13
159.929041598532
 23
32.48609484274661
 33
0.0
  0
POINT
  5
295
330
1D6
100
AcDbEntity
  8
Defpoints
 62
     0
100
AcDbPoint
 10
159.929041598532
 20
32.48609484274661
 30
0.0
  0
POINT
  5
296
330
1D6
100
AcDbEntity
  8
Defpoints
 62
     0
100
AcDbPoint
 10
120.1360064270772
 20
-9.710046590371938
 30
0.0
  0
ENDBLK
  5
1DE
330
1D6
100
AcDbEntity
  8
0
100
AcDbBlockEnd
  0
BLOCK
  5
1E6
330
1DF
100
AcDbEntity
  8
0
100
AcDbBlockBegin
  2
*D27
 70
     1
 10
0.0
 20
0.0
 30
0.0
  3
*D27
  1

  0
LINE
  5
282
330
1DF
100
AcDbEntity
  8
Bemaßung
 62
     0
370
    -2
100
AcDbLine
 10
182.6486603572698
 20
-0.8514487726826303
 30
0.0
 11
175.2955873784963
 21
3.733932597035206
 31
0.0
  0
MTEXT
  5
283
330
1DF
100
AcDbEntity
  8
Bemaßung
 62
     0
100
AcDbMText
 10
181.3427007331613
 20
2.172648432210536
 30
0.0
 40
2.5
 41
0.0
 71
     5
 72
     1
  1
R8
 11
0.8485315191830366
 21
-0.5291448392953749
 31
0.0
 73
     1
 44
1.0
  0
LINE
  5
284
330
1DF
100
AcDbEntity
  8
Bemaßung
 62
     0
370
    -2
100
AcDbLine
 10
166.3860064270711
 20
9.289953409638783
 30
0.0
 11
173.1742585805387
 21
5.056794695273651
 31
0.0
  0
SOLID
  5
285
330
1DF
100
AcDbEntity
  8
Bemaßung
 62
     0
100
AcDbTrace
 10
175.5160643948694
 20
4.087487396694811
 30
0.0
 11
175.0751103621233
 21
3.380377797375601
 31
0.0
 12
173.1742585805387
 22
5.056794695273651
 32
0.0
 13
173.1742585805387
 23
5.056794695273651
 33
0.0
  0
POINT
  5
286
330
1DF
100
AcDbEntity
  8
Defpoints
 62
     0
100
AcDbPoint
 10
173.1742585805387
 20
5.056794695273651
 30
0.0
  0
POINT
  5
287
330
1DF
100
AcDbEntity
  8
Defpoints
 62
     0
100
AcDbPoint
 10
166.3860064270711
 20
9.289953409638783
 30
0.0
  0
ENDBLK
  5
1E7
330
1DF
100
AcDbEntity
  8
0
100
AcDbBlockEnd
  0
ENDSEC
  0
SECTION
  2
ENTITIES
  0
LWPOLYLINE
  5
10C
330
1F
100
AcDbEntity
  8
0
100
AcDbPolyline
 90
       12
 70
     1
 43
0.0
 10
-11.64575131106448
 20
6.999999999999985
 42
-0.1826758136816083
 10
-9.0
 20
7.999999999999985
 10
9.0
 20
7.999999999999985
 42
-0.1826758136815944
 10
11.64575131106448
 20
6.999999999999985
 10
14.35424868893551
 20
4.999999999999985
 42
0.182675813681594
 10
17.0
 20
3.999999999999985
 10
46.25
 20
3.999999999999985
 42
0.5276907764545947
 10
49.97725186676371
 20
9.451755324325588
 42
0.6712702964363082
 10
-49.97725186676371
 20
9.451755324325645
 42
0.5276907764545947
 10
-46.25
 20
4.000000000000014
 10
-17.0
 20
3.999999999999985
 42
0.1826758136815952
 10
-14.35424868893551
 20
4.999999999999985
  0
LWPOLYLINE
  5
10D
330
1F
100
AcDbEntity
  8
0
100
AcDbPolyline
 90
        4
 70
     1
 43
0.0
 10
53.69016243436409
 20
10.94006512687765
 42
0.6716302063195588
 10
-53.69016243436817
 20
10.94006512686645
 42
0.5292605853609814
 10
-46.25
 20
0.0000000000000142
 10
46.25
 20
-0.0000000000000142
 42
0.5292605853609822
  0
LINE
  5
12D
330
1F
100
AcDbEntity
  8
Symetrie
100
AcDbLine
 10
-35.00000000000204
 20
19.99999999999829
 30
-0.8000000000000003
 11
-35.00000000000204
 21
14.99999999999829
 31
-0.8000000000000003
  0
LINE
  5
12E
330
1F
100
AcDbEntity
  8
Symetrie
100
AcDbLine
 10
-32.50000000000204
 20
17.49999999999829
 30
-0.8000000000000003
 11
-37.50000000000204
 21
17.49999999999829
 31
-0.8000000000000003
  0
CIRCLE
  5
12F
330
1F
100
AcDbEntity
  8
0
100
AcDbCircle
 10
-35.00000000000864
 20
17.49999999999396
 30
-0.8000000000000003
 40
1.6
  0
LINE
  5
13B
330
1F
100
AcDbEntity
  8
Symetrie
100
AcDbLine
 10
37.4999999999801
 20
17.50000000001608
 30
-0.8000000000000003
 11
32.4999999999801
 21
17.50000000001608
 31
-0.8000000000000003
  0
CIRCLE
  5
13C
330
1F
100
AcDbEntity
  8
0
100
AcDbCircle
 10
34.9999999999809
 20
17.49999999999396
 30
-0.8000000000000003
 40
1.6
  0
LINE
  5
13D
330
1F
100
AcDbEntity
  8
Symetrie
100
AcDbLine
 10
34.9999999999801
 20
20.00000000001608
 30
-0.8000000000000003
 11
34.9999999999801
 21
15.00000000001608
 31
-0.8000000000000003
  0
CIRCLE
  5
140
330
1F
100
AcDbEntity
  8
0
100
AcDbCircle
 10
-0.0000000000138698
 20
17.49999999999396
 30
4.599999999999999
 40
3.0
  0
ENDSEC
  0
SECTION
  2
OBJECTS
  0
DICTIONARY
  5
C
330
0
100
AcDbDictionary
281
     1
  3
ACAD_GROUP
350
D
  3
ACAD_LAYOUT
350
1A
  3
ACAD_MLINESTYLE
350
17
  3
ACAD_PLOTSETTINGS
350
19
  3
ACAD_PLOTSTYLENAME
350
E
  3
AcDbVariableDictionary
350
29F
  0
DICTIONARY
  5
D
102
{ACAD_REACTORS
330
C
102
}
330
C
100
AcDbDictionary
281
     1
  0
DICTIONARY
  5
1A
102
{ACAD_REACTORS
330
C
102
}
330
C
100
AcDbDictionary
281
     1
  3
Layout1
350
1E
  3
Layout2
350
26
  3
Model
350
22
  0
DICTIONARY
  5
17
102
{ACAD_REACTORS
330
C
102
}
330
C
100
AcDbDictionary
281
     1
  3
Standard
350
18
  0
DICTIONARY
  5
19
102
{ACAD_REACTORS
330
C
102
}
330
C
100
AcDbDictionary
281
     1
  0
ACDBDICTIONARYWDFLT
  5
E
102
{ACAD_REACTORS
330
C
102
}
330
C
100
AcDbDictionary
281
     1
  3
Normal
350
F
100
AcDbDictionaryWithDefault
340
F
  0
DICTIONARY
  5
29F
102
{ACAD_REACTORS
330
C
102
}
330
C
100
AcDbDictionary
281
     1
  3
DIMASSOC
350
2A1
  3
HIDETEXT
350
2A0
  0
LAYOUT
  5
1E
102
{ACAD_REACTORS
330
1A
102
}
330
1A
100
AcDbPlotSettings
  1

  2
Kyocera FS-2000D (KPDL)
  4

  6

 40
0.0
 41
0.0
 42
0.0
 43
0.0
 44
0.0
 45
0.0
 46
0.0
 47
0.0
 48
0.0
 49
0.0
140
0.0
141
0.0
142
1.0
143
1.0
 70
   688
 72
     0
 73
     0
 74
     5
  7

 75
    16
147
1.0
148
0.0
149
0.0
100
AcDbLayout
  1
Layout1
 70
     1
 71
     1
 10
0.0
 20
0.0
 11
420.0
 21
297.0
 12
0.0
 22
0.0
 32
0.0
 14
1.000000000000000E+20
 24
1.000000000000000E+20
 34
1.000000000000000E+20
 15
-1.000000000000000E+20
 25
-1.000000000000000E+20
 35
-1.000000000000000E+20
146
0.0
 13
0.0
 23
0.0
 33
0.0
 16
1.0
 26
0.0
 36
0.0
 17
0.0
 27
1.0
 37
0.0
 76
     0
330
1B
  0
LAYOUT
  5
26
102
{ACAD_REACTORS
330
1A
102
}
330
1A
100
AcDbPlotSettings
  1

  2
Kyocera FS-2000D (KPDL)
  4

  6

 40
0.0
 41
0.0
 42
0.0
 43
0.0
 44
0.0
 45
0.0
 46
0.0
 47
0.0
 48
0.0
 49
0.0
140
0.0
141
0.0
142
1.0
143
1.0
 70
   688
 72
     0
 73
     0
 74
     5
  7

 75
    16
147
1.0
148
0.0
149
0.0
100
AcDbLayout
  1
Layout2
 70
     1
 71
     2
 10
0.0
 20
0.0
 11
12.0
 21
9.0
 12
0.0
 22
0.0
 32
0.0
 14
0.0
 24
0.0
 34
0.0
 15
0.0
 25
0.0
 35
0.0
146
0.0
 13
0.0
 23
0.0
 33
0.0
 16
1.0
 26
0.0
 36
0.0
 17
0.0
 27
1.0
 37
0.0
 76
     0
330
23
  0
LAYOUT
  5
22
102
{ACAD_REACTORS
330
1A
102
}
330
1A
100
AcDbPlotSettings
  1

  2
Kyocera FS-2000D (KPDL)
  4

  6

 40
0.0
 41
0.0
 42
0.0
 43
0.0
 44
0.0
 45
0.0
 46
0.0
 47
0.0
 48
0.0
 49
0.0
140
0.0
141
0.0
142
1.0
143
1.0
 70
  1712
 72
     0
 73
     0
 74
     0
  7

 75
     0
147
1.0
148
0.0
149
0.0
100
AcDbLayout
  1
Model
 70
     1
 71
     0
 10
0.0
 20
0.0
 11
12.0
 21
9.0
 12
0.0
 22
0.0
 32
0.0
 14
0.0
 24
0.0
 34
0.0
 15
0.0
 25
0.0
 35
0.0
146
0.0
 13
0.0
 23
0.0
 33
0.0
 16
1.0
 26
0.0
 36
0.0
 17
0.0
 27
1.0
 37
0.0
 76
     0
330
1F
  0
MLINESTYLE
  5
18
102
{ACAD_REACTORS
330
17
102
}
330
17
100
AcDbMlineStyle
  2
STANDARD
 70
     0
  3

 62
   256
 51
90.0
 52
90.0
 71
     2
 49
0.5
 62
   256
  6
BYLAYER
 49
-0.5
 62
   256
  6
BYLAYER
  0
ACDBPLACEHOLDER
  5
F
102
{ACAD_REACTORS
330
E
102
}
330
E
  0
DICTIONARYVAR
  5
2A1
102
{ACAD_REACTORS
330
29F
102
}
330
29F
100
DictionaryVariables
280
     0
  1
2
  0
DICTIONARYVAR
  5
2A0
102
{ACAD_REACTORS
330
29F
102
}
330
29F
100
DictionaryVariables
280
     0
  1
1
  0
ENDSEC
  0
EOF
